Guitaretab - guitar tabs
Song name
# A B C D E F G H I J K L M N O P Q R S T U V W X Y Z

Hey Rosetta - New Goodbye tab

Fantastic song

Not exactly right, but close enough to play along with the song or sing along to.


Section A - Intro/verses

Actually uses 4 strings with different base notes, 
but this is easier to play and sounds pretty much the same.



                                             "Get your things

e|----7---------7---------7---------7---------8---------7---------7--------------------|
B|--------8---------8---------8---------8---------8---------8---------8----------------|
G|--0---0-----0---0-----0---0-----0---0-----0---0-----0---0-----0---0------------------|
D|-------------------------------------------------------------------------------------|
A|-------------------------------------------------------------------------------------|
E|-------------------------------------------------------------------------------------|



      We're     leav  -   ing                  When the  morn  -  ing

e|----10---------8---------7---------7---------10---------8---------7------------------|
B|---------8---------8---------8---------8----------8---------8---------8--------------|
G|--0----0-----0---0-----0---0-----0---0-----0----0-----0---0-----0---0----------------|
D|-------------------------------------------------------------------------------------|
A|-------------------------------------------------------------------------------------|
E|-------------------------------------------------------------------------------------|


      birds     are      sing   -  ing	                         we're

e|----5---------7---------5---------3---------3---------3---------3--------------------|
B|--------7---------8---------3---------2---------2---------2---------2----------------|
G|--0---0-----0---0-----0---0-----0---0-----0---0-----0---0-----0---0------------------|
D|-------------------------------------------------------------------------------------|
A|-------------------------------------------------------------------------------------|
E|-------------------------------------------------------------------------------------|


    sailing."

e|---3---------3---------3--------3----------------------------------------------------|
B|-------1---------1---------1--------1------------------------------------------------|
G|-0---0-----0---0-----0---0----0---0--------------------------------------------------|
D|-------------------------------------------------------------------------------------|
A|-------------------------------------------------------------------------------------|
E|-------------------------------------------------------------------------------------|
[ Tab from: http://www.guitaretab.com/h/hey-rosetta/179678.html ]
Repeat throughout the verses, with a little variation at times.




(1:25)

Section B - Fill


pick or strum these fingerings:

     "In...."

e|---7-7---7-7-7-7-7-8----10---7-7--7-7-7-7-7--8--10--12-12--12-12-12-12-10--7---------|
B|---8-8---8-8-8-8-8-10---12---5-5--5-5-5-5-8--10-12--13-13--13-13-13-13-12--8---------|
G|---0-0---0-0-0-0-0-0----0----0-0--0-0-0-0-0--0--0---0--0---0--0--0--0--0---0---------| 
D|-------------------------------------------------------------------------------------|
A|-------------------------------------------------------------------------------------|
E|-------------------------------------------------------------------------------------|



(1:46)

Section C - Buildup


e|--7-7--5-5--7-7--5-7--8---10--12--12--12-12-12-12-12-15--12-10-10-10---10-10-10--10-10-10--|
B|--8-8--7-7--8-8--7-8--10--12--13--13--13-13-13-13-13-13--13-12-12-12---12-12-12--12-12-12--|
G|--0-0--0-0--0-0--0-0--0---0---0---0---0--0--0--0--0--0---0--0--0--0----0--0--0---0--0--0---| 
D|-------------------------------------------------------------------------------------------|
A|-------------------------------------------------------------------------------------------|
E|-------------------------------------------------------------------------------------------|





Section D - Verse

   "Preconcieved      false belief..."

e|-8--7-7--7-7--7-10--8--7-7--7-7--7-10--8--7-7--5-5--7-7--5-5--3-3-3-3-3---3-3--3-3-3-3-3-|
B|-8--8-8--8-8--8-8---8--8-8--8-8--8-8---8--8-8--7-7--8-8--7-7--2-2-2-2-2---1-1--1-1-1-1-1-|
G|-0--0-0--0-0--0-0---0--0-0--0-0--0-0---0--0-0--0-0--0-0--0-0--0-0-0-0-0---0-0--0-0-0-0-0-| 
D|-----------------------------------------------------------------------------------------|
A|-----------------------------------------------------------------------------------------|
E|-----------------------------------------------------------------------------------------|

Keep strumming last chord or a G the second time around.





(2:45)

Section E


One guitar simply strums a G - Em - C  chord progression


Other guitar does a mixture between section B and this:

     "return         it..."	

e|---7-7--7-7-7-7--5-3--3-3-3-3--7-7-7-5-3--3-3-3-3-3---7-7-5-7----------|
B|---8-8--8-8-8-8--7-5--2-2-2-2--8-8-8-7-5--1-1-1-1-1---8-8-7-8----------|
G|---0-0--0-0-0-0--0-0--0-0-0-0--0-0-0-0-0--0-0-0-0-0---0-0-0-0----------|
D|-----------------------------------------------------------------------|
A|-----------------------------------------------------------------------|
E|-----------------------------------------------------------------------|




(3:07)
Repeat section C


(3:27)
Repaeat section D (Distorted guitar)


(3:49)
Repeat section E until end.
Related for New Goodbye tab
×
New Goodbye