Song name
# A B C D E F G H I J K L M N O P Q R S T U V W X Y Z

Hey Rosetta - A Thousand Suns tab

Help us improve GuitareTab! Take a short survey!
-------------------------------------------------------------------------------
			    A Thousand Suns -  Hey Rosetta!
-------------------------------------------------------------------------------
Tabbed by:Soccerguy
Email:colinpowell111@hotmail.com

Tuning:Standard

e|-----------|
B|-----------|
G|--7*-------|
D|--7*-------|
A|--5*-------|
E|-----------|
Rest for a while 
e|---------------------------------7------------------|
B|--------------------------------7-------------------|
G|-7-4-2-7-4-2---7-4-2-7-2-5-2---7--------------------|
D|-7-4-2-7-4-2-5-7-4-2-7-2-5-2-5----------------------|
A|-5-2-0-5-2-0-5-5-2-0-5-4-3-0-5----------------------|
E|-------------3---------------3----------------------|

e|-9-7-9--------------------------------------------------|
B|-8-8-8--------------------------------------------------|
G|-7-7-7-7------------------------------------------------|
D|-------7------------------------------------------------|
A|-------5------------------------------------------------|
E|--------------------------------------------------------|

e|-14p12p11*----------------------------------------------------|
B|--------------------------------------------------------------|
G|-----------7-4---7--------------------------------------------|
D|-----------7-4-5-7-5------------------------------------------|
A|-----------5-2-5-5-5------------------------------------------|
E|---------------3---3------------------------------------------|

e|-12-10---14-12-10------------------------------------|
B|------12---------------------------------------------|
G|-----------------------------------------------------|
D|-----------------------------------------------------|
A|-----------------------------------------------------|
E|-----------------------------------------------------|

e|-9-7-9-7---|-------------------------------------------------------|
B|-8-8-8-8---|-------------------------------------------------------|
G|-7-7-7-7-7-|-7-4-2-7-4-2---777-7-7-77-444-----7--------------------|
D|---------7-|-7-4-2-7-4-2-5-777-7-7-77-444-555-7--------------------|
A|---------5-|-5-2-0-5-2-0-5-555-5-5-55-222-555-5--------------------|
E|-----------|-------------3----------------333----------------------|

e|---------------------------------------------0h2-3p2*-14*12*14*15*14*17*|
B|-------------------------------0h2*-2h3*-3h5*---------15-15-15-15-15-19-|
G|---6*7*6*-------2-------3-----------------------------14-14-14-14-14-19-|
D|-7*------7*5*4*4-4h5p4-4-4h5p4------------------------------------------|
A|------------------------------------------------------------------------|
E|------------------------------------------------------------------------|

e|-21sb-21b-21b-21------------------------------------|
B|----------------22-20-------------------------------|
G|----------------------------------------------------|
D|----------------------------------------------------|
A|----------------------------------------------------|
E|----------------------------------------------------|

| /  slide up
| \  slide down
| h  hammer-on
| p  pull-off
| ~  vibrato
| +  harmonic
| x  Mute note
| *  Play a lot
| sb Slight bend
==============================================================================
Related for A Thousand Suns tab