Song name
# A B C D E F G H I J K L M N O P Q R S T U V W X Y Z

Hey Rosetta - Go Henry tab

So the intro and first verse is all piano but this is pretty close on guitar.

Played until the drums come in.

  Am
e|-------------7-----------5-------------|
B|----------5-----5-----------5--------8-|
G|-------5-----------5-----------5-------|
D|----7-----------------7-----------7----|
A|---------------------------------------|
E|-5-------------------------------------|

  C
e|-------------7-----------5-----------7-|
B|----------5-----5-----------5----------|
G|-------5-----------5-----------5-------|
D|----5-----------------5-----------5----|
A|---------------------------------------|
E|-8-------------------------------------|

  Em
e|-------------7---------------------------|
B|----------8-----8--------10------------8-|
G|-------9-----------9---------7---------9-|
D|----9-----------------9---------9------9-|
A|-7---------------------------------7-----|
E|-----------------------------------------|


You should trya and hold the G chord while reaching for the 7 and 5 on the high e 
although it is a stretch.

  G                     D
e|-------------7--5--3--2--2-----2--3--5-|
B|----------------------3-----3--3-------|
G|----------4-----------2--------2-------|
D|-------5-------------------------------|
A|----5----------------------------------|
E|-3-------------------------------------|

This is the 2nd and last progression for the song and is played on piano and eventually 
guitar as well. The 2nd chord may take some getting used to unless you've learned the 
live and let die.

e|--0--|--2--|--3--|--0--2--|
B|--0--|--2--|--3--|--1--1--|
G|--0--|--5--|--0--|--2--2--|
D|--2--|--4--|--0--|--2--2--|
A|--2--|--3--|--2--|--0--0--|
E|--0--|--2--|--3--|--x-----|

There's also some guitar playing octaves over the chords but thats pretty simple.

If anyones looking for any other hey rosetta tabs just ask me and ill see if I can help 
out.


Thanks for Looking!
Tap to rate this tab
# A B C D E F G H I J K L M N O P Q R S T U V W X Y Z