Song name
# A B C D E F G H I J K L M N O P Q R S T U V W X Y Z

Hey Rosetta - Bandages chords

Highlighted       Show chord diagrams
These aren't exactly the chords Tim uses,
but they sound fine when you play it acoustically or along with the song,
voila!

F#                  C#
It will come around
     B                F#
but everything is now
         B            F#    F   F#
I know everything is right now
                         C#
The loneliness is a lot
          B                  F#
But the nothing weighs a ton
             B              F#   F       B 
I mean the nothing weighs a fucking ton


4 bar interlude (strum B)

F#                  C#
That half of the bed
B                 F#
Empty like a page
       B                      F#  F      F#
Of the curses claims you've yet to make
                        C#
Oh, the promising light
B                    F#
Bending like a spine
         B                  F#      F      B 
Or the whiteness that your pen could write


4 bar interlude

D#m                A#          
Get these bandages off
C#m                       G#m
You cant stand, you can walk
D#m                  A#
Leave these towels apart
C#m                 G#m
You get up, you get out
           B
Into the sun


4 bar interlude (last bar in 2/4) (strum B)

F#                    C#
Thats where we belong
 B               F#
Been a bit too long
          B             F#  F         F#
All our weaknesses are growing strong
                     C#
And winter always ends
B                    F#       B                  F# F      B 
With water on your limbs, the April rain comes swinging in

4 bar interlude (strum B)

D#m                 A#          
Take these bandages off
C#m                  G#m
Let me stand, let me walk
D#m                  A#
Leave these towels apart
C#m               G#m
Let me up, let me out,
           B
Into the sun


4 bar interlude

    F#           B
Oh, come she will
F#           B
Come she will
F#            B
Come, she will
F#           B
Come she will
       F#  
She will

E|-9-----------------------11------9-------------------------2-2-2-2-|
B|(9)------9-------11-----(11)----(9)------9-------11--------2-2-2-2-|
G|-6------(8)-----(10)-----8-------6------(8)-----(10)-------3-3-3-3-| 
D|---------6-------8-----------------------6-------8---------4-4-4-4-|
A|-----------------------------------------------------------4-4-4-4-|
E|-----------------------------------------------------------2-2-2-2-|
(repeat 3x)(dont strum last time)

B
She comes, oh,
(B)
She comes, son,
F#
She cooooomes

B
She comes, oh,
(B)
She comes, son,
F#
She cooooomes

B
She comes, oh,
(B)
She comes, son,
F#
She cooooomes


B
She comes, oh,
(B)
She comes, son,
F#
She cooooomes

B
She comes, oh,
(B)
She comes, son,
F#
She cooooomes

B
She comes, oh,
(B)
She comes, son,
F#
She cooooomes

B
She comes, oh,
(B)
She comes, son,
F#             B
She cooooomes


4 bar interlude (strum B, end on F#)


E|-9-----------------------11------9-------------------------2-2-2-2-|
B|(9)------9-------11-----(11)----(9)------9-------11--------2-2-2-2-|
G|-6------(8)-----(10)-----8-------6------(8)-----(10)-------3-3-3-3-| 
D|---------6-------8-----------------------6-------8---------4-4-4-4-|
A|-----------------------------------------------------------4-4-4-4-|
E|-----------------------------------------------------------2-2-2-2-|
(repeat 3x)(dont strum last time)

Tap to rate this tab
 
# A B C D E F G H I J K L M N O P Q R S T U V W X Y Z