Song name
# A B C D E F G H I J K L M N O P Q R S T U V W X Y Z

Hey Rosetta - Welcome tab

99.9% correct I believe. Rate and comment if you'd like! Enjoy!

Artist: Hey Rosetta!
Song: Welcome
Album: Seeds
Tuning: Standard

Verse 1

e |--x---x---x---x--x---|
B |--x---x---x---x--x---|
G |--6---x---x---x--x---|
D |--7---7--11---6--7---|
A |--x---5---9---4--5---| 	
E |--5---x---x---x--x---|

You'll be a bright light coming out of the dark
All the doctors blinking hard
You'll be lightning coming out of the storm
It's a message, it's a miracle


Pre-chorus

e |---x---x---x-----|
B |---x---x---x-----|
G |---7---6---7-----|
D |---7---6---7-----|
A |---5---4---5-----| 	
E |---x---x---x-----|

You'll do all right
You've got your mother's eyes
You've got your daddy's head
Everything you need

Chorus

e |--x---x---x---x--x---|
B |--x---x---x---x--x---|
G |--6---x---x---x--x---|
D |--7---7--11---6--7---|
A |--x---5---9---4--5---| 	
E |--5---x---x---x--x---|

I can feel you and what you're gonna be
You'll be stronger, you'll be smarter than me
Oh baby, I'll say it again
You're the most incredible thing



Verse 2

e |--x---x---x---x--x---|
B |--x---x---x---x--x---|
G |--6---x---x---x--x---|
D |--7---7--11---6--7---|
A |--x---5---9---4--5---| 	
E |--5---x---x---x--x---|

For this hard ride
They'll be strapping you on
All the ups and downs and you can't get off
Yes, trouble we're handing off
And you've got to do better than us

Pre-chorus

e |---x---x---x-----|
B |---x---x---x-----|
G |---7---6---7-----|
D |---7---6---7-----|
A |---5---4---5-----| 	
E |---x---x---x-----|

It'll be all right
You've got lots of time
Got your daddy's love
Everything you want

Chorus

Bridge

e |--x---x---x------|
B |--x---x---x------|
G |--6---x---x------|
D |--7---6---7------|
A |--x---4---5------| 	
E |--5---x---x------|


Sorry, this is it
It's cold and hard and badly lit
And there's no backing out of it
So forget where you've been
It'll never be that good again
And we must only look ahead
Soon you're 33
And everything you tried to be
Is pulled apart by fear and greed

Let young hands build you up
And carve your face in honest rock
With sunlight on your noble jaw
May young hands build you up
I'm happy that you've come along
I'm happy that you've come, I'm happy that you've come

Bridge Interlude 

e |--x---x---x---x--x---|
B |--x---x---x---x--x---|
G |--6---x---x---x--x---|
D |--7---7--11---6--7---|
A |--x---5---9---4--5---| 	
E |--5---x---x---x--x---|

Chorus

End on

e |--x--------|
B |--x--------|
G |--6--------|
D |--7--------|
A |--x--------| 	
E |--5--------|
	
Tap to rate this tab
 
# A B C D E F G H I J K L M N O P Q R S T U V W X Y Z