Song name
# A B C D E F G H I J K L M N O P Q R S T U V W X Y Z

Hey Rosetta - Red Song tab

This is my version of "Red song". Swainler's tab inspired and help me at first but 
then i noticed there might have some 

changes to do.

Anyway there still is the bridge part to figure out. I would be grateful to any help. ;)

You can find Swainler's tab at this link: 
http://tabs.ultimate-guitar.com/h/hey_rosetta/red_song_tab.htm
You can find the video that helped me to write the tab here: 
http://www.youtube.com/watch?v=e82i9HkIh4M



Intro: Play once without lyrics.                                 



            In the white I wake up           

     Dmin            Dmin slide         Am                        G
e|---------1----------------3---------------0---------------------------------------------|
B|-----3-------3--------5-------5-------1-------1--------1----------0---------------------|
G|-------2-------2s4------4-------4-------2----------2---------0--------0-----------------|
D|--0----------------0--------------0---------------------------------0-------------------|
A|------------------------------------0-----------0----0----0-----------------------------|
E|---------------------------------------------------------------3------------------------|

            In the white I die

     Dmin            Dmin slide         Am                            G
e|--------1-----------------3-----------------0-------------------------------------------|
B|----3-----3---------5--------5--------1--------1-----------1----------0-----------------|
G|------2------2s4-------4--------4--------2-------------2----------0-------0-------------|
D|--0---------------0---------------0---------------0h2--------0h2--------0---------------|
A|------------------------------------0--------------------0------------------------------|
E|--------------------------------------------------------------------3-------------------|


           
           Somewhere in the red, I see your eyes

     Dmin            Dmin slide         Am             G                
e|--------1-----------------3-----------------0----------------3--------------------------|
B|----3-----3---------5--------5--------1--------1----------------0-----------------------|
G|------2------2s4-------4--------4--------2--------2s0----0-----------0------------------|
D|--0--------0---------------------0------------------------------------------------------|
A|------------------------------------0---------------------------------------------------|
E|-------------------------------------------------------3---3-------3--------------------|
 

     D                               F
e|----------------2--------------------------1----------------1---------------------------|
B|---------1---------1--------1----------------------1------------------------------------|
G|-----2------2----------2--------2------2-------2-------2-------2------------------------|
D|-----------------------------------------3-------3--------3------3----------------------|
A|----------------------------------------------------------------------------------------|
E|--2----2------2------2--------2-----1---------------------------------------------------|



Repeat for verses 2, 3, 6 

--Verse 2--

In the green I'm out walking                   

and in the green I live

Somewhere in the red, I have your lips

--Bridge--

Emin  Amin  F  C

Em              Am      
I dream of a cloud    
                         
F               C
I dream of you

--Verse 3--

In the blue I'm rising, like an ocean

and in the blue it's down, I sail

Somewhere in the red, I taste your skin

--Verse 4  Strum--

Am                  C         F 
The girls they loved his face 

Am                         C         G     F
Cut their fingers and they could not look away

but your son never saw a thing

his eyes wrapped in all these dreams

Coloured cloth in autumn gray

Coloured cloth covered with bloody stains

--Bridge 2--

Em                Am    
and without the pain

F                 C
we learn to love again

My dream to find

My dream come true

--Verse 6--
                    
In the black I feel you 

In the black I sense

Somewhere in the red, the colours end       --End on D--
Tap to rate this tab
 
# A B C D E F G H I J K L M N O P Q R S T U V W X Y Z