Song name
# A B C D E F G H I J K L M N O P Q R S T U V W X Y Z

Hey Rosetta - Raskolnikov tab

----------------------------------------------------------------------------
                     raskolnikov - Hey Rosetta!
----------------------------------------------------------------------------
Tabbed by: David Chaytor
Email: davidchaytor@hotmail.com

Tuning: Standard  


  Listen to the song for rhythm and structure.

Piano intro to the song, the same as the opening guitar riff.


Intro...piano



e|-7-7--5-5--5-5--3-3--7-7--5-5--7-7-7-7| X2
B|-7h8--5-5--5-5--3-3--7h8--5-5--7-7-7-7|
G|-7-7--6-6--7-7--4-4--7-7--6-6--7-7-7-7|
D|-7h9--7-7--7-7--5-5--7h9--7-7--9-9-9-9|
A|-7-7--7-7--5-5--5-5--7-7--7-7--9-9-9-9|
E|------5-5-------3-3-------5-5--7-7-7-7|

"a siren from somewhere floats..."


e|-------------------------7-7-------7-7-------| X2
B|-------------------------7h8-------7h8-------|
G|-4-4-4-------7-7-7-------7-7-------7-7-------| **Distorted guitar plays 
D|-4-4-4-5-5-5-7-7-7-7-7-7-7h9-------7h9-------|   along with this riff.
A|-2-2-2-5-5-5-5-5-5-7-7-7-7-7-------7-7-------|
E|-2-2-2-3-3-3-------5-5-5-----7-6-5-----7-6-5-|

"who's footsteps are these and why..."


e|-7-7-7-7-5-5-5-5-| X4
B|-8-8-7-7-5-5-5-5-|
G|-7-7-7-7-6-6-6-6-|
D|-9-9-9-9-7-7-7-7-|
A|-7-7-9-9-7-7-7-7-|
E|-----7-7-5-5-5-5-|

"leave me alone..."


e|-------------------------7-7-------7-7-------| X2
B|-------------------------7h8-------7h8-------|
G|-4-4-4-------7-7-7-------7-7-------7-7-------| **Distorted guitar plays
D|-4-4-4-5-5-5-7-7-7-7-7-7-7h9-------7h9-------|   along with this riff.
A|-2-2-2-5-5-5-5-5-5-7-7-7-7-7-------7-7-------|
E|-2-2-2-3-3-3-------5-5-5-----7-6-5-----7-6-5-|

"home isn't safe but you can't run now that would be suicide..."


e|-7-7--5-5--5-5--3-3--7-7--5-5--7-7-7-7| X2
B|-7h8--5-5--5-5--3-3--7h8--5-5--7-7-7-7|
G|-7-7--6-6--7-7--4-4--7-7--6-6--7-7-7-7|
D|-7h9--7-7--7-7--5-5--7h9--7-7--9-9-9-9|
A|-7-7--7-7--5-5--5-5--7-7--7-7--9-9-9-9|
E|------5-5-------3-3-------5-5--7-7-7-7|

"a moment's conclusion floats..."


e|-------------------------7-7-------7-7-------| X2
B|-------------------------7h8-------7h8-------|
G|-4-4-4-------7-7-7-------7-7-------7-7-------| **Distorted guitar plays
D|-4-4-4-5-5-5-7-7-7-7-7-7-7h9-------7h9-------|   along with this riff. 
A|-2-2-2-5-5-5-5-5-5-7-7-7-7-7-------7-7-------|
E|-2-2-2-3-3-3-------5-5-5-----7-6-5-----7-6-5-|

"whose hands are these and why do they..."


e|-7-7-7-7-5-5-5-5-| X4
B|-8-8-7-7-5-5-5-5-|
G|-7-7-7-7-6-6-6-6-|
D|-9-9-9-9-7-7-7-7-|
A|-7-7-9-9-7-7-7-7-|
E|-----7-7-5-5-5-5-|

"leave me alone..."


e|-------------------------7-7-------7-7-------|
B|-------------------------7h8-------7h8-------|
G|-4-4-4-------7-7-7-------7-7-------7-7-------|
D|-4-4-4-5-5-5-7-7-7-7-7-7-7h9-------7h9-------|
A|-2-2-2-5-5-5-5-5-5-7-7-7-7-7-------7-7-------|
E|-2-2-2-3-3-3-------5-5-5-----7-6-5-----7-6-5-|

"home isn't there unless the man who once lived there is still alive..."



e|-------------------------7-7-------7-7-------7-7-------7-7-------|
B|-------------------------7h8-------7h8-------7h8-------7h8-------|
G|-4-4-4-------7-7-7-------7-7-------7-7-------7-7-------7-7-------|
D|-4-4-4-5-5-5-7-7-7-7-7-7-7h9-------7h9-------7h9-------7h9-------|
A|-2-2-2-5-5-5-5-5-5-7-7-7-7-7-------7-7-------7-7-------7-7-------|
E|-2-2-2-3-3-3-------5-5-5-----7-6-5-----7-6-5-----7-6-5-----7-6-5-|

"you don't not know, you don't know, all you know is this isn't right..."



e|-7-7--5-5--5-5--3-3--7-7--5-5--7-7-7-7|
B|-7h8--5-5--5-5--3-3--7h8--5-5--7-7-7-7|
G|-7-7--6-6--7-7--4-4--7-7--6-6--7-7-7-7|
D|-7h9--7-7--7-7--5-5--7h9--7-7--9-9-9-9|
A|-7-7--7-7--5-5--5-5--7-7--7-7--9-9-9-9|
E|------5-5-------3-3-------5-5--7-7-7-7|

"isn't right, ins't right, isn't right..."


e|-7-7--5-5--5-5--3-3--7-7--5-5--7-7-7-7|
B|-7h8--5-5--5-5--3-3--7h8--5-5--7-7-7-7|
G|-7-7--6-6--7-7--4-4--7-7--6-6--7-7-7-7|
D|-7h9--7-7--7-7--5-5--7h9--7-7--9-9-9-9|
A|-7-7--7-7--5-5--5-5--7-7--7-7--9-9-9-9|
E|------5-5-------3-3-------5-5--7-7-7-7|




Check out the website for all the lyrics!

                            www.heyrosetta.com!
============================================================================
Tap to rate this tab
 
# A B C D E F G H I J K L M N O P Q R S T U V W X Y Z