Song name
# A B C D E F G H I J K L M N O P Q R S T U V W X Y Z

Hi-5 - Night Time Sleep Time tab

Night Time, Sleep Time

    F# G# A#m C#
E|--2--4--6--4--|
B|--2--4--6--6--|
G|--3--5--6--6--|
D|--4--6--8--6--|
A|--4--6--8--4--|
E|--2--4--6-----|

Intro
E|--------------------9--8---------9--8--11--|
B|--------------------------9--11------------|
G|----------------10-------------------------|
D|------------11-----------------------------|
A|-----8--11---------------------------------|
E|--9----------------------------------------|

C#
Night time, sleep time, say goodnight time
G#
Goodnight stars, shimmering bright
F#
Goodnight moon, silver and light
C#                   F#
Snuggle up with your blanket
C#              F#
Snuggle up real tight
A#m                 G#
Close your eyes and dream
F#                     C#
Dream till the morning light

Night time, sleep time, say goodnight time
E|--------------------------|
B|--6-----6-----6-----6-----|
G|-----6-----6-----6-----6--|
D|--------------------------|
A|--------------------------|
E|--------------------------|

Goodnight stars, shimmering bright
E|-----------------------|
B|--------------6--------|
G|--8--8--8--8-----5--8--|
D|-----------------------|
A|-----------------------|
E|-----------------------|

Goodnight moon, silver and light
E|-----------------------|
B|-----------------------|
G|--6--6--6--6--8-----6--|
D|-----------------8-----|
A|-----------------------|
E|-----------------------|

Snuggle up with your blanket
E|----------------------|
B|--6--6--6--6--7--6----|
G|-------------------6--|
D|----------------------|
A|----------------------|
E|----------------------|

Snuggle up real tight
E|-----------------|
B|--6--6--6--9-----|
G|--------------6--|
D|-----------------|
A|-----------------|
E|-----------------|

Close your eyes and dream
E|-----------------|
B|--6--6--6--7-----|
G|--------------8--|
D|-----------------|
A|-----------------|
E|-----------------|

Dream till the morning light
E|--------------------|
B|--6--6--6--6--5--6--|
G|--------------------|
D|--------------------|
A|--------------------|
E|--------------------|

(ADD IN THE SECOND TIME)

Night time, sleep time, say goodnight time
E|------------------------------|
B|--9------9------9------9------|
G|-----10-----10-----10-----10--|
D|------------------------------|
A|------------------------------|
E|------------------------------|

Goodnight stars, shimmering bright
E|-------------------------|
B|--9--9--9--9--11------9--|
G|------------------10-----|
D|-------------------------|
A|-------------------------|
E|-------------------------|

Goodnight moon, silver and light
E|----------------------------|
B|------------------9---------|
G|--11--11--11--11-----8--11--|
D|----------------------------|
A|----------------------------|
E|----------------------------|

e----------------------------------9--------------------------------|
b--9--9--9--9--11--9------9--9--9-----11--11--11--11--11--9---------|
g---------------------11--------------------------------------------|
d-------------------------------------------------------------------|
a-------------------------------------------------------------------|
e-------------------------------------------------------------------|

Snuggle up with your blanket
E|-------------------------|
B|--9--9--9--9--11--9------|
G|---------------------11--|
D|-------------------------|
A|-------------------------|
E|-------------------------|

Snuggle up real right
E|-----------9------|
B|--9--9--9-----11--|
G|------------------|
D|------------------|
A|------------------|
E|------------------|

Close your eyes and dream
E|---------------------|
B|--11--11--11--11--9--|
G|---------------------|
D|---------------------|
A|---------------------|
E|---------------------|

E|--------------------------|
B|--------------------------|
G|--11--11--11--11--11--10--|
D|--------------------------|
A|--------------------------|
E|--------------------------|
Tap to rate this tab
 
# A B C D E F G H I J K L M N O P Q R S T U V W X Y Z