Hi-5 - Captain Wonder tab

Captain Wonder

    F  G  C  D
E|--------------|
B|--------------|
G|--------5--7--|
D|--3--5--5--7--|
A|--3--5--3--5--|
E|--1--3--------|

G

C
Captain Wonder
E|--------------|
B|--------------|
G|--5--5--5--5--|
D|--------------|
A|--------------|
E|--------------|
 |
E|--------------|
B|--8--8--8--8--|
G|--------------|
D|--------------|
A|--------------|
E|--------------|

D
What a guy
E|-----------|
B|-----------|
G|--7--------|
D|-----7--7--|
A|-----------|
E|-----------|
 |
E|------------|
B|--10--7--7--|
G|------------|
D|------------|
A|------------|
E|------------|

C
Flies in the air
E|--------------|
B|--------------|
G|--5--5--5--5--|
D|--------------|
A|--------------|
E|--------------|
 |
E|--------------|
B|--8--8--8--8--|
G|--------------|
D|--------------|
A|--------------|
E|--------------|

D
Way up high
E|-----------|
B|-----------|
G|--7--------|
D|-----7--7--|
A|-----------|
E|-----------|
 |
E|------------|
B|--10--7--7--|
G|------------|
D|------------|
A|------------|
E|------------|

C
Strong and brave
E|-----------|
B|-----------|
G|--5--5--5--|
D|-----------|
A|-----------|
E|-----------|
 |
E|--------------|
B|--10--10--10--|
G|--------------|
D|--------------|
A|--------------|
E|--------------|

G                F
Saves the day
E|-----------|
B|-----------|
G|--7--------|
D|-----5--5--|
A|-----------|
E|-----------|
 |
E|-----------|
B|--8--8--8--|
G|-----------|
D|-----------|
A|-----------|
E|-----------|

You know you're safe
E|--------------|
B|--------------|
G|--5--5--5--5--|
D|--------------|
A|--------------|
E|--------------|
 |
E|------------------|
B|--10--10--10--10--|
G|------------------|
D|------------------|
A|------------------|
E|------------------|

             G
When Captain Wonder
E|-----------------|
B|-----------5-----|
G|-----5--7-----7--|
D|--7--------------|
A|-----------------|
E|-----------------|
 |
E|--------------------|
B|--10--10--10--8--8--|
G|--------------------|
D|--------------------|
A|--------------------|
E|--------------------|

           C
Comes your way
E|-----------|
B|-----------|
G|--5--4--5--|
D|-----------|
A|-----------|
E|-----------|
 |
E|-----------|
B|--8--8--8--|
G|-----------|
D|-----------|
A|-----------|
E|-----------|
Tap to rate this tab
 
# A B C D E F G H I J K L M N O P Q R S T U V W X Y Z