Song name
# A B C D E F G H I J K L M N O P Q R S T U V W X Y Z

Hi-5 - Ranger Kathleen tab

Ranger Kathleen

    Dm   Gm  A7  D#m  G#m A#7
e|---5---10-------6---11-------|
b|---6---11-------7---12-------|
g|---7---12---6---8---13---5---|
d|---7---12---5---8---13---6---|
a|---5---10---7---6---11---8---|
E|------------5------------6---|

Intro:
e|-----------|---------------------------|
b|-----------|---------------------------|
g|-----------|--------------2------------|
d|-----------|--0--0--0--3---------------|
a|--0--3--4--|-----------------[repeat]--|
E|-----------|---------------------------|

Dm
Im the ranger on the scene
Looking after wildlife
Im ranger Kathleen
Kathleen Kathleen
        Gm
Im the koalas friend
Helping plants to mend
    Dm
Im looking after everything green
Green green
           A7
Whats her name?
               Dm
Ranger, Ranger Kathleen
Shes the ranger on the scene
Looking after wildlife
Shes ranger Kathleen
Im ranger Kathleen
          Gm
Shes the koalas friend
Helping plants to mend
      Dm
Shes looking after everything green
Green green
           A7
Whats her name?
               Dm
Ranger, Ranger Kathleen
    D#m
Kathleen
Im the ranger on the scene
Looking after wildlife
Im ranger Kathleen
Kathleen Kathleen
        G#m
Im the koalas friend
Helping plants to mend
    D#m
Im looking after everything green
Green green
           A#7
Whats her name?
                   D#m
Ranger, ranger Kathleen

Im the ranger on the scene, looking after wildlife Im ranger Kathleen
e---------------------------------------------------------------|
b------------------8--10------------8--10--10--10--10-----------|
g--7--7--7--7--10---------7--7--10---------------------7--6--7--|
d---------------------------------------------------------------|
a---------------------------------------------------------------|
e---------------------------------------------------------------|

Kathleen, Kathleen
e--------------|
b--------------|
g--------1--2--|
d--------------|
a--4--5--------|
e--------------|

Im the koalas friend, helping plants to mend; Im looking after everything green
e-------------------------------------------------------------------------|
b--------8--8------8--8--8--8------8------10------------------------------|
g--7--7--------10--------------10-----10------7--7--7--7--7--7--6--7--10--|
d-------------------------------------------------------------------------|
a-------------------------------------------------------------------------|
e-------------------------------------------------------------------------|

Green green whats her name
e-----------[-----------][-----------|
b-----3-----[--3--3--2--][--3--3--5--|
g--2--------[-----------][-----------|
d-----------[-----------][-----------|
a-----------[-----------][-----------|
e-----------[-----------][-----------|

Ranger, ranger Kathleen
e------------------------|
b--10--10--10--8---------|
g-----------------10--7--|
d------------------------|
a------------------------|
e------------------------|

Shes the ranger on the scene, look after wildlife shes ranger Kathleen
e--------------------------------------------------------|
b--------------------------------------------------------|
g--------------------2--------------2--2--2--2-----------|
d--------------3--5-----------3--5-----------------------|
a--5--5--5--5-----------5--5--------------------5--4--5--|
e--------------------------------------------------------|

Im ranger Kathleen
e-------------------|
b--10--10-----------|
g----------7--6--7--|
d-------------------|
a-------------------|
e-------------------|

Shes the koalas friend, helping plants to mend, shes looking after everything green
e----------------------------------------------------------------|
b----------------------------------------------------------------|
g--------------------------------------2-------------------------|
d--------5--5--3--5--5--5--5--3--5--3----------------------------|
a--5--5-----------------------------------5--5--5--5--5--5--4--5-|
e----------------------------------------------------------------|

     green, green   ---whats her name--
e--------------[-------------][-----------|
b--------3-----[----3--3--2--][--3--3--5--|
g-----2--------[-------------][-----------|
d--3-----------[-------------][-----------|
a--------------[-------------][-----------|
e--------------[-------------][-----------|

Ranger, ranger Kathleen
e------------------------|
b--10--10--10--8---------|
g-----------------10--7--|
d------------------------|
a------------------------|
e------------------------|

Kathleen
e--------|
b--------|
g--7--8--|
d--------|
a--5--6--|
e--------|

Im the ranger on the scene, looking after wildlife Im ranger Kathleen
e---------------------------------------------------------------|
b------------------9--11------------9--11--11--11--11--8--7--8--|
g--8--8--8--8--11---------8--8--11------------------------------|
d---------------------------------------------------------------|
a---------------------------------------------------------------|
e---------------------------------------------------------------|

Kathleen, Kathleen
e--------------|
b--------------|
g--------2--3--|
d--------------|
a--5--6--------|
e--------------|

Im the koalas friend, helping plants to mend; Im looking after everything green
e-------------------------------------------------------------------------|
b--------9--9------9--9--9--9------9------11------------------------------|
g--8--8--------11--------------11-----11------8--8--8--8--8--8--7--8--11--|
d-------------------------------------------------------------------------|
a-------------------------------------------------------------------------|
e-------------------------------------------------------------------------|

Green green whats her name
e-----------[-----------][-----------|
b-----4-----[--4--4--3--][--4--4--6--|
g--3--------[-----------][-----------|
d-----------[-----------][-----------|
a-----------[-----------][-----------|
e-----------[-----------][-----------|

Ranger, ranger Kathleen
e----------------|
b--11--9---------|
g---------11--8--|
d----------------|
a----------------|
e----------------|
Tap to rate this tab
 
# A B C D E F G H I J K L M N O P Q R S T U V W X Y Z