Song name
# A B C D E F G H I J K L M N O P Q R S T U V W X Y Z

Hi My Name Is Earl - Distant Tail Lights tab

Help us improve GuitareTab! Take a short survey!
Hi My Name Is Earl : Distant Tail-Lights
By James Best & Carl Bush

Guitar 1 intro

e------------------------------------------------|
B------------------------------------------------|
G------------------------------------------------|
D----0--------------0----------------------------|
A------0--------------0--------------------------|
E--------3--------------3------------------------|

Guitar 2 intro

e---2-2-----2-2-----2-2-----2-2-----2-2-----2-2--|
B--3-3-3---3-3-3---3-3-3---3-3-3---3-3-3---3-3-3-|
G-2-------2-------2-------2-------2-------2------|
D------------------------------------------------|
A------------------------------------------------|
E------------------------------------------------|

The chords are D Dsus Asus then it goes into Em Am D Dsus
then some of the other chords are C Fmaj7 ( theres a crazy chord
in there that looks like this
e-0
B-1
G-0
D-0
A-2
E-3

i don't know that it's called ) G7
Related for Distant Tail Lights tab