Song name
# A B C D E F G H I J K L M N O P Q R S T U V W X Y Z

Hi-standard - Have You Ever Seen The Rain tab

Band - Hi-Standard
Song - Have You Ever Seen The Rain (CCR Cover)
Album - Angry Fist

Tabbed By: Tyler Freear (SumFX)

Tuning: Standard (E A D G B E)

Really Awesome Pop Punk Cover Of A Classic Track!

/=Pick Scrape
.=Palm Mute

Intro
|------------------------|
|------------------------|
|-----------5------------|
|-7----3----5----5-------|
|-7----3----3----5-------|
|-5----1---------3--/----|

Intro Part 2
|-----------------|
|-----------------|
|-5-55--5-4-------|
|-5-55--5-4-7-5---|
|-3-33--3-2-7-5---|
|-----------5-3---|

Verse 1
|------------------------------------|
|------------------------------------|
|-5555555555555555----------55555555-|
|-5555555555555555-55555555-55555555-|
|-3333333333333333-55555555-33333333-|
|------------------33333333----------|

|----X4--------|--------------------|
|--------------|--------------------|
|--------------|----------55555555--|
|-55-5555-5-5--|-55555555-55555555--|
|-33-3333-3-3--|-55555555-33333333--|
|--------------|-33333333-----------|
  .. .... 

Chorus 1
|------------------------------------|
|------------------------------------|
|-------------------555-444----------|
|-33333333-55555555-555-444-777-555--| x2
|-33333333-55555555-333-222-777-555--|
|-11111111-33333333---------555-333--|

|-------------------|---------------|
|-------------------|---------------|
|-------------------|-5-55-5-4------|
|-33333333-55555555-|-5-55-5-4-7-5--|
|-33333333-55555555-|-3-33-5-2-7-5--|
|-11111111-33333333-|----------5-3--|

Verse 2
|---X2---------------|-------------------|
|--------------------|-------------------|
|--------------------|----------55555555-|
|-5-5555555555555555-|-55555555-55555555-|
|-3-3333333333333333-|-55555555-33333333-|
|--------------------|-33333333----------|
    ................

|-------------------------------------|-------------------|
|-------------------------------------|-------------------|
|-------------------------------------|----------55555555-|
|-5555555555555555-5-5555555555555555-|-55555555-55555555-|
|-3333333333333333-3-3333333333333333-|-55555555-33333333-|
|-------------------------------------|-33333333----------|
  ................   ................

Chorus 2
|--------------------------------------|
|--------------------------------------|
|---------------------555-444----------|
|-3-3-3333--5-5-5555--555-444-777-555--| x2
|-3-3-3333--5-5-5555--333-222-777-555--|
|-1-1-1111--3-3-3333----------555-333--|

|-------------------|---------------|
|-------------------|---------------|
|-------------------|-5-55-5-4------|
|-33333333-55555555-|-5-55-5-4-7-5--|
|-33333333-55555555-|-3-33-5-2-7-5--|
|-11111111-33333333-|----------5-3--|

Chorus 3
|------------------------------------|
|------------------------------------|
|-------------------555-444----------|
|-33333333-55555555-555-444-777-555--| x2
|-33333333-55555555-333-222-777-555--|
|-11111111-33333333---------555-333--|

|-------------------|----x2---------|
|-------------------|---------------|
|-------------------|-5-55-5-4------|
|-33333333-55555555-|-5-55-5-4-7-5--|
|-33333333-55555555-|-3-33-5-2-7-5--|
|-11111111-33333333-|----------5-3--|

|-----------------|
|-----------------|
|-5-55-5----------|
|-5-55-5-7-5-2-5--|
|-3-33-3-7-5-2-5--|
|--------5-3-0-3--|

C5
|-------------------|
|-------------------|
|-5------------5----|
|-5------------5----|
|-3------------3----|
|-------------------|

Great, Fun Song To Play!

Rate & Comment Please!
Tap to rate this tab
 
# A B C D E F G H I J K L M N O P Q R S T U V W X Y Z