Song name
# A B C D E F G H I J K L M N O P Q R S T U V W X Y Z

Hiatt John - Feels Like Rain tab

Buddy Guy
Feels Like Rain
Tabbed by Gonseg


intro:

e||------------------------------------------------------------|
B||-----------5---5---------------------9----------------------|
G||-----------5---5---------------------9----------------------|
D||---------------------5-7p5---5--7\9----9p7\5------5-7p5-----|
A||--2-5-5\7----7-----7-------7-----------------7--7-------5---|
E||------------------------------------------------------------| 


e||-------7\5--5h7-5-3-5-3-5p3-------------|
B||----------------------------------------|
G||---5\7----------------------------------|
D||-------------------------------5-7------|
A||-----------------------------7-----7-3--|
E||----------------------------------------|


verse:
there are about 5 chords:

C G B Em D 

C and G are played with some fills like that

e||--3--3--------------3--3------7-5----3------------|
B||--5--5-5--5---------3--3-------------5---5-----3--|
G||--5-------5-5-------4--4-------------5---5-----4--|
D||--5---------5-------5--------------------------5--|
A||--3-----------3-3---5----5\7-------3---3----------|
E||--------------------3----------------------5-5----|

C                   G
Down here the river meets the sea
C                                G 
And in the sticky heat I feel ya open up to me
B
Love comes out of nowhere baby,
Em          D        C
just like a hurricane
G                     C
And it feels like rain


solo:

e||-----------------------------------------|
B||-----------------------------------------|
G||-----7b9(long)----5-4b5-4b5--------------|
D||----------------------------5-5b6(long)--|
A||-----------------------------------------|
E||-----------------------------------------|


e||---------------------------------10-----------------|
B||---------8---8------8-10-10b-10b----10b--8---8-8-7--|
G||-----7b9---7---7r-----------------------------------|
D||--------(still bend)--------------------------------|
A||----------------------------------------------------|
E||----------------------------------------------------|
Tap to rate this tab
# A B C D E F G H I J K L M N O P Q R S T U V W X Y Z