Song name
# A B C D E F G H I J K L M N O P Q R S T U V W X Y Z

Hickory - Helen Earth tab

Hickory - Helen Earth

INTRO (clean)

(ON BEAT, follow rhythm below)
  1  2  3  4  5  6       7  8
---------------------------------------------------------------------------------|
---------------------------------------------------------------------------------|
--4--4--4--4--4--4---/---9--9----------------------------------------------------|
--4--4--4--4--4--4---/---9--9-----------(x 4)------------------------------------|
--2--2--2--2--2--2---/---7--7----------------------------------------------------|
---------------------------------------------------------------------------------|

  1  2  3  4  5  6  7  8
---------------------------------------------------------------------------|
---------------------------------------------------------------------------|
--------------9--9--9--9---------------------------------------------------|
--4--4--4--4--9--9--9--9---------------------------------------------------|
--4--4--4--4--7--7--7--7---------------------------------------------------|
--2--2--2--2---------------------------------------------------------------|

VERSE 1 (clean)

  1  2  3  4  5  6       7  8
---------------------------------------------------------------------------------|
---------------------------------------------------------------------------------|
--4--4--4--4--4--4---/---9--9----------------------------------------------------|
--4--4--4--4--4--4---/---9--9-----------(x 2)------------------------------------|
--2--2--2--2--2--2---/---7--7----------------------------------------------------|
---------------------------------------------------------------------------------|


  1  2  3  4  5  6  7  8
---------------------------------------------------------------------------|
---------------------------------------------------------------------------|
--------------9--9--9--9---------------------------------------------------|
--4--4--4--4--9--9--9--9---------------------------------------------------|
--4--4--4--4--7--7--7--7---------------------------------------------------|
--2--2--2--2---------------------------------------------------------------|


  1  2  3  4  5  6       7  8
---------------------------------------------------------------------------------|
---------------------------------------------------------------------------------|
--4--4--4--4--4--4---/---9--9----------------------------------------------------|
--4--4--4--4--4--4---/---9--9-----------(x 3)------------------------------------|
--2--2--2--2--2--2---/---7--7----------------------------------------------------|
---------------------------------------------------------------------------------|

  1  2  3  4  5  6  7  8
---------------------------------------------------------------------------|
---------------------------------------------------------------------------|
--------------9--9--9--9---------------------------------------------------|
--4--4--4--4--9--9--9--9---------------------------------------------------|
--4--4--4--4--7--7--7--7---------------------------------------------------|
--2--2--2--2---------------------------------------------------------------|


(PRE-CHORUS) (clean)

  1  2  3  4  5  6    7    8
------------------------------------------------------------------------------|
------------------------------------------------------------------------------|
--4-----------9--9---11---11--------------------------------------------------|
--4--4--6--2--9--9---11---11--------------------------------------------------|
--2--4--6--2--7--7----9----9--------------------------------------------------|
-----2--4--0------------------------------------------------------------------|

(Distorted)


  1  2  3  4  5  6    7    8
------------------------------------------------------------------------------|
------------------------------------------------------------------------------|
--4-----------9--9---11---11--------------------------------------------------|
--4--4--6--2--9--9---11---11---------------(x2)-------------------------------|
--2--4--6--2--7--7----9----9--------------------------------------------------|
-----2--4--0------------------------------------------------------------------|


CHORUS (distorted)

  1  2  3  4  5  6  7  8
----------------------------------------------------------------------|
----------------------------------------------------------------------|
----------------------------------------------------------------------|
--4--4--6--6--9--8--9--8--------------------(x4)----------------------|
--4--4--6--6--9--9--9--9----------------------------------------------|
--2--2--4--4--7--7--7--7----------------------------------------------|

VERSE 2 (as verse 1)
PRE-CHORUS
CHORUS
OUTRO (as chorus)
Tap to rate this tab
# A B C D E F G H I J K L M N O P Q R S T U V W X Y Z