Song name
# A B C D E F G H I J K L M N O P Q R S T U V W X Y Z

Hidden Agenda - All Alone tab

This is a simple but amazing song!
This young band are amazing! to find out more about them and listen to some
of their songs, go to www.a-hidden-agenda.co.uk
Posted by Chris Truman

verse

E-----7---7--7--------9---9---9------7---7---7----5--5--5----------------------
B-----7---7--7--------9---9---9------7---7---7----5--5--5----------------------
G-----9---9--9--------9---9---9------7---7---7----5--5--5----------------------
D-----9---9--9-------11--11--11------9---9---9----7--7--7----------------------
A-----7---7--7-------11--11--11------9---9---9----7--7--7----------------------
E---------------------9---9---9------7---7---7----5--5--5----------------------

lead parts

E----12--------------------------
B---------12---------------------
G--------------------------------  x 13
D--------------------------------
A--------------------------------
E--------------------------------

chorus

E--9----7----9----5---------------
B--9----7----9----5---------------   x ??
G--9----7----9----5---------------
D--7----5----7----3---------------
A--7----5----7----3---------------
E--9----7----9----5---------------


2nd guitar over ' we're all alone....'

E----12-----------12-------------
B----12-----------12-------------
G--------------------------------  
D--------------------------------
A--------------------------------
E--------------------------------
Tap to rate this tab
 
# A B C D E F G H I J K L M N O P Q R S T U V W X Y Z