Song name
# A B C D E F G H I J K L M N O P Q R S T U V W X Y Z

Hidden In Plain View - Belly Full Of Kerosene tab

-------------------------------------------------------------------------------
			     Belly Full Of Kerosene - Hidden in plain view
-------------------------------------------------------------------------------
Tabbed by: Colin	
Email: Colinawthnowena@netscape.net

Tuning: Drop D

Opening 
e|---------------------------------------------------------------------------|
B|--------------10-----------------------------------------------------------|
G|-10-----10-------10--------------------------------------------------------|
D|-10-----10-----------------------------------------------------------------|
A|-8------0------------------------------------------------------------------|
E|-8------0------------------------------------------------------------------|


Verse
Guitar 1
e|---------------------------------------------------------------------------|
B|---------------------------------------------------------------------------|
G|-10------10----------------------------------------------------------------|
D|-10-x8---10-x8-------------------------------------------------------------|
A|-8-------0-----------------------------------------------------------------|
E|-8-------0-----------------------------------------------------------------|

Guitar 2
e|---------------------------------------------------------------------------|
B|-------------------------11-10 let ring------------------------------------|
G|-----10-let ring-----------------------------------------------------------|
D|--10-----------------------------------------------------------------------|
A|---------------------------------------------------------------------------|
E|---------------------------------------------------------------------------|


Chorus
e|---------------------------------------------------------------------------|
B|---------------------------------------------------------------------------|
G|-10------10------10------12------------------------------------------------|
D|-10-x16--10-x16--10-x16--12-x16--------------------------------------------|
A|-8-------0-------8-------10------------------------------------------------|
E|-8-------0-------8-------10------------------------------------------------|


Bridge
Little beginning Part
e|---------------------------------------------------------------------------|
B|---------------------------------------------------------------------------|
G|-10----12----10------------------------------------------------------------|
D|-10-x8-12-x4-10-x2-0-------------------------------------------------------|
A|-8-----10----8-----0-x3----------------------------------------------------|
E|-8-----10----8-----0-------------------------------------------------------|

Guitar 2
e|---------------------------------------------------------------------------|
B|-5p6p5p6p5p6p5p6p5p6--6p8p6p8p6p8--8p108p108p108---------------------------|
G|---------------------------------------------------------------------------|
D|---------------------------------------------------------------------------|
A|---------------------------------------------------------------------------|
E|---------------------------------------------------------------------------|

Next Part Of Bridge
e|---------------------------------------------------------------------------|
B|---10--11-10---------------------------------------------------------------|
G|-10--10-------x7-----------------------------------------------------------|
D|---------------------------------------------------------------------------|
A|---------------------------------------------------------------------------|
E|---------------------------------------------------------------------------|
Tap to rate this tab
# A B C D E F G H I J K L M N O P Q R S T U V W X Y Z