Song name
# A B C D E F G H I J K L M N O P Q R S T U V W X Y Z

Hidell - Going Down In Flames tab

-------------------------------------------------------------------------------
			     Going Down In Flames - Hidell
-------------------------------------------------------------------------------
Tabbed by: XVentura
Email: asrichawla@gmail.com

Tuning: Standard

Piss-easy song. My first real tab without any help.

Intro - Chords are shown. Strumming pattern is extremely simple.
e|-----------------------------------------------------------------------|
B|-----------------------------------------------------------------------|
G|-----------------------------------------------------------------------|
D|-7--4--9--2------------------------------------------------------------|
A|-7--4--9--2------------------------------------------------------------|
E|-5--2--7--0------------------------------------------------------------|

Verse - Chords are shown below.
e|-----------------------------------------------------------------------|
B|-----------------------------------------------------------------------|
G|-----------------------------------------------------------------------|
D|-7--4--9--2------------------------------------------------------------|
A|-7--4--9--2------------------------------------------------------------|
E|-5--2--7--0------------------------------------------------------------|
PM ..........

Pre-chorus
e|-----------------------------------------------------------------------|
B|-----------------------------------------------------------------------|
G|-----------------------------------------------------------------------|
D|-7--7--9--7------------------------------------------------------------|
A|-5--7--7--5------------------------------------------------------------|
E|-5--5--7--5------------------------------------------------------------|

Chorus (same as Intro) AND Pre-Verse. Strumming pattern changes for Pre-verse.
e|-----------------------------------------------------------------------|
B|-----------------------------------------------------------------------|
G|-----------------------------------------------------------------------|
D|-7--4--9--2------------------------------------------------------------|
A|-7--4--9--2------------------------------------------------------------|
E|-5--2--7--0------------------------------------------------------------|

Order of Play
Intro x2
Verse x4
Pre-chorus x1
Verse x4
Pre-chorus x1
Chorus x4
Post-chorus x2
Verse x4
Pre-chorus x1
Chorus x4
Post-chorus x4
Verse x3
Post-chorus x1
Chorus x4
Post-chorus x4


| /  slide up
| \  slide down
| h  hammer-on
| p  pull-off
| ~  vibrato
| +  harmonic
| x  Mute note
============================================================================
Tap to rate this tab
# A B C D E F G H I J K L M N O P Q R S T U V W X Y Z