Song name
# A B C D E F G H I J K L M N O P Q R S T U V W X Y Z

Hiding With Girls - Cassette tab

-------------------------------------------------------------------------------
		          Hiding With Girls - Cassette
-------------------------------------------------------------------------------
Tabbed by: Adam Cowley
Email: adam@areasix.co.uk

Tuning: Drop C


Intro:

d|-------------------------------|
a|-------------------------------|
f|-------------------------------|
c|-------------9t----------------|
g|--9t-10t-12t---12t-10t-9t-10t--|
c|-------------------------------|


d|-------------------------------------|--------------|
a|-------------------------------------|--------------|
f|-------------------------------------|--7----5--7---|
c|---------------9---------------------|--x----x--x---|
g|--9--10---12-------12---10---9---10--|--5----7--5---|
c|---0----0----0---0----0----0---0-----|--0----5--0---|  x2
     x    x    x   x    x    x   x


Verse:
Slightly Palm Muted with Delay
d|------------------------------|
a|--------------12--------------|
f|--12--14--12------12--14--12--|
c|------------------------------|
g|------------------------------|
c|------------------------------|



Chorus:

Guitar 1:
d|------------------------------------------------------------------------------|
a|------------------------------------------------------------------------------|
f|------------------------------------------------------------------------------|
c|-9-9--9-9-9-9-9-9---5x-5x--5x-5x---12-12--12-12-12-12-12-12---5x-5x---7x-7x---|
g|-9-9--9-9-9-9-9-9---5x-5x--5x-5x---12-12--12-12-12-12-12-12---5x-5x---7x-7x---|
c|-9-9--9-9-9-9-9-9---5x-5x--5x-5x---12-12--12-12-12-12-12-12---5x-5x---7x-7x---|


Guitar 2:
d|------------------------------|
a|--------------12--------------|
f|--12--14--12------12--14--12--|
c|------------------------------|
g|------------------------------|
c|------------------------------|



Bridge:

d|------------------------------------|
a|------------------------------------|
f|------------------------------------|
c|---------------9--------------------|
g|--9--10---12-------12---10---9x-9x--|
c|---0----0----0---0----0------0x-0x--|  
     x    x    x   x    x      

d|-------------------------------------|--------------|
a|-------------------------------------|--------------|
f|-------------------------------------|--7----5--7---|
c|---------------9---------------------|--x----x--x---|
g|--9--10---12-------12---10---9---10--|--5----7--5---|
c|---0----0----0---0----0----0---0-----|--0----5--0---|  
     x    x    x   x    x    x   x



(of decadence...)
d|-----------------------|
a|-----------------------|
f|---7-7--7-7--7-7--7-7--|
c|---7-7--7-7--7-7--7-7--|
g|---5-5--5-5--5-5--5-5--|
c|---5-5--5-5--5-5--5-5--|
 |
 | this is either the guitar or bassline:
d|------------------------------------|
a|------------------------------------|
f|------------------------------------|
c|------------------------------------|
g|--5-5-5--7-7-5h7--9-9--7-7-9p7-9p7--|
c|------------------------------------|
 
then into chorus



| /  slide up
| \  slide down
| h  hammer-on
| p  pull-off
| ~  vibrato
| +  harmonic
| x  Mute note
| t  Tremlo Pick
===============================================================================
Tap to rate this tab
# A B C D E F G H I J K L M N O P Q R S T U V W X Y Z