Song name
# A B C D E F G H I J K L M N O P Q R S T U V W X Y Z

High And Mighty Color - Sweet Escape tab

Help us improve GuitareTab! Take a short survey!
Tabbed by:GaNdY
Band:High and Mighty Color
Album:Goover
Tuning (D,A,D,G,B,E)

I Have not included the solo because i dont know it (*_*) but if i learn it i'll update
tab. Also im not sure on the tuning for H and MC, on their videos they have 7 and 5
but with drop D your intune with the song so ah well. Ive just done the various parts of 
song if you listen for the exact rythym  and order then you will be sorted.

- = Palm Mute

Intro: Some kind of whammy/phaser effect for first part.
E |------------------------------------------------------|
B |------------------------------------------------------|
G |------------------------------------------------------|
D |--7--3--5--5--7---------------------------------------|
A |--7--3--5--3--5---------------------------------------|
D |--7--3--5---------------------------------------------|


Intro 2:
E |------------------------------------------------------|
B |------------------------------------------------------|
G |------------------------------------------------------|
D |--7--3--5--5------------------------------------------|
A |--7--3--3--5------------------------------------------|
D |--7--3-----5------------------------------------------|


Chorus 1:
E |------------------------------------------------------|
B |------------------------------------------------------|
G |------------------------------------------------------|
D |--7--3--5--5--7---------------------------------------|
A |--7--3--5--3--5---------------------------------------|
D |--7--3--5---------------------------------------------|
     -  -  -

Verse:
E |------------------------------------------------------|
B |------------------------------------------------------|
G |------------------------------------------------------|
D |--3--5--757575----------------------------------------|
A |--3--5--757575----------------------------------------|
D |--3--5--757575----------------------------------------|


Chorus 2:
E |------------------------------------------------------|
B |------------------------------------------------------|
G |------------------------------------------------------|
D |--7--3--5--5--7---------------------------------------|
A |--7--3--5--3--5---------------------------------------|
D |--7--3--5---------------------------------------------|


Bridge thingy:
E |------------------------------------------------------|
B |------------------------------------------------------|
G |------------------------------------------------------|
D |--7--3--5--5------------------------------------------|
A |--7--3--3--5------------------------------------------|
D |--7--3-----5------------------------------------------|

High and Mighty Color rock!
Related for Sweet Escape tab