Song name
# A B C D E F G H I J K L M N O P Q R S T U V W X Y Z

High And Mighty Color - Days tab

********DAYS(solo part)***********
***High***and***Mighty**Color******

Tuning: eBGDAE
Tabbed by: Gerard Samaniego

--3/5----3--5--6-----/8---6--5--6--5------|
-----------------6-------------------6----|
------------------------------------------|
------------------------------------------|
------------------------------------------|
------------------------------------------|

--/13--10-13-14-13-11-13-14-13-11---/17---|
------------------------------------------|
------------------------------------------|
------------------------------------------|
------------------------------------------|
------------------------------------------|

-------------------14-15-14-15-17-15-17-15-17/19---|
----------14-15-17---------------------------------|
-14-15-17------------------------------------------|
---------------------------------------------------|
---------------------------------------------------|
---------------------------------------------------|
Tap to rate this tab
# A B C D E F G H I J K L M N O P Q R S T U V W X Y Z