Song name
# A B C D E F G H I J K L M N O P Q R S T U V W X Y Z

High And Mighty Color - Dive Into Yourself tab

-------------------------------------------------------------------------------
	                  Dive into yourself - High and mighty color
-------------------------------------------------------------------------------
Tabbed by:Oxalis
Email:
Very easy solo, I tabbed with my ears.I made it perfectly accurate.enjoy.

Tuning:standard

Kazuto's Solo guitar
e|---------------------------9-----7----9---------------12-----10----9----8-------------|
B|------7----9-------------------------------8----10------------------------------------|
G|-----------------9---9----------------------------------------------------------------|
D|--------------------------------------------------------------------------------------|
A|--------------------------------------------------------------------------------------|
E|--------------------------------------------------------------------------------------|

e|-----12----10-----8----9----8-------------------------------------------------------|
B|------------------------------------------------------------------------------------|
G|------------------------------------------------------------------------------------|
D|------------------------------------------------------------------------------------|
A|------------------------------------------------------------------------------------|
E|------------------------------------------------------------------------------------|
    MEG does a short little solo after Kazuto's solo.
e|----------------------------------------------------------------------------------|
B|----------------------------------------------------------------------------------|
G|----------------------------------------------------------------------------------|
D|----------------------------------------------------------------------------------|
A|----------------------------------------------------------------------------------|
E|--1---2----4-4---2----------------------------------------------------------------|

 that's it hope you liked it.
=====================================================
Tap to rate this tab
# A B C D E F G H I J K L M N O P Q R S T U V W X Y Z