Song name
# A B C D E F G H I J K L M N O P Q R S T U V W X Y Z

High And Mighty Color - Ichirin No Hana tab

BLEACH »
             »Ichirin no Hana - A single flower
             »Ichirin no Hana
             »A single flower

Artist       »HIGH and MIGHTY COLOR
Description  »BLEACH 3rd opening song

Intro:

e|-------------------------------------------------------------|
B|-------------------------------------------------------------|
G|-----6h-t9--4h-6h-t11--4h-6h-t9--4h-6h-t12------7h---t12-p7--|
D|---4------------------------------------------5--------------|
A|-------------------------------------------------------------|
E|-------------------------------------------------------------|

e|---------------------------------------------------------|
B|---------------------------------------------------------|
G|---6h-t9--4h-6h-t11--4h-6h-t9--4h-6h-t9------7h---t9-p7--|
D|-4-----------------------------------------5-------------|
A|---------------------------------------------------------|
E|---------------------------------------------------------|

e|----------------------------------------------------------|
B|----------------------------------------------------------|
G|---6h-t9--4h-6h-t11--4h-6h-t9--4h-6h-t12-----7h---t12-p7--|
D|-4-----------------------------------------5--------------|
A|----------------------------------------------------------|
E|----------------------------------------------------------|


e|-------------------------------------------------------|
B|-------------------------------------------------------|
G|---6h-t9--4h-6h-t11--4h-6h-t9--4h-6h-t9-p6-------------|
D|-4-----------------------------------------------------|
A|-------------------------------------------------------|
E|-----------------------------------------------6-\--\--|


Chorus:........(sorry, do your own strum.)

e|---------------------------------------------------|
B|---------------------------------------------------|
G|--6---------------8-------------9--------11--------|
D|--6---------------8-------------9--------11--------|
A|--4---------------6-------------7---------9--------|
E|---------------------------------------------------|
   Kimi     wa     kimi   dake shika       inai yo

e|---------------------------------------|
B|---------------------------------------|
G|--6---------------8------9-------------|
D|--6---------------8------9-------------|
A|--4---------------6------7-------------|
E|---------------------------------------|
   Kawari  nante    hoka   ni inainda

e|----------------------------------------------|
B|----------------------------------------------|
G|--6-------8------9---------------11-----------|
D|--6-------8------9---------------11-----------|
A|--4-------6------7----------------9-----------|
E|----------------------------------------------|
          Kare nai de               ichirin no hana


Riff:

e|-------------------------------------------4-------|
B|--------------4--------4-------------4h-5----------|
G|----6p-4---6--6-----6-----6--6---------------------|
D|---------------------------------------------------|
A|-------------------------------------------------\-|
E|---------------------------------------------------|  \
                                                     /repeat 2x
e|------------------------------------------7-----|  /
B|------------4---------4-------------4h-5--------|
G|--6p-4---6--6------6-----6--6-------------------|
D|------------------------------------------------|
A|------------------------------------------------|
E|------------------------------------------------|

Verse:
      (Hard to figure out, the timing of the Lyrics. So.. do your own:-)

     ------PM------      PM      ------PM--------------------|     PM
e|-----------------------------------------------------------|
B|-----------------------------------------------------------|
G|--------------------------6---------------------------4----|
D|--------------------------6---------------------------4----|
A|---4--4---4--4--4-------4-4-----4--4---4--4--4------4-2----|
E|---4--4---4--4--4-------4-------4--4---4--4--4------4------|

      Hi   ka    ri ga matomo  ni sa   shi ko  ma     nai
     Kimi wa maru de hikage ni saita hana no you
     Nozonda hazu jyanakatta basho ni
     Ne wo harasete ugokezu ni irunda ne

  Then..

 | -----------PM------------      -----------PM-----------------|
e|--------------------------------------------------------------|
B|--------------------------------------------------------------|
G|---------------------------6------------------------------4---|
D|---------------------------6------------------------------4---|
A|-4--4---4--4--4---4--4---4-4----4--4---4--4--4---4--4---4-2---|
E|-4--4---4--4--4---4--4---4------4--4---4--4--4---4--4---4-----|
   To..........               ji... ka..................

 | -----------PM------------      -----------PM---------------------|
e|------------------------------------------------------------------|
B|------------------------------------------------------------------|
G|---------------------------6--------------------------------------|
D|---------------------------6--------------------------------------|
A|-4--4---4--4--4---4--4---4-4----4--4---4--4--4---4--4---4---------|
E|-4--4---4--4--4---4--4---4------4--4---4--4--4---4--4---4-7\\\----|
  ke...........       ta..... kimochi         haki     daseba

REPEAT:
       -- Chorus ---
       -- Riff   ---

       -- Verse :---
       --
       --Ima ni mo karete shimai sou na
       --Kimi no mujyaki na sugata ga mou ichido mitakute
       --
       --Kimi no chikara ni naritainda

Chorus........ (The same as the first Chorus)

Tatoe kimi igai no subete no hito wo
Teki ni mawasu toki ga kite mo
Kimi no koto mamori nuku kara

 Then..

e|-----------------------------------------------------|
B|-----------------------------------------------------|
G|-----------------------------------------------------| Repeat
D|----------------------4-----------------------9------|   4x
A|---6---/-7---\-6---\--2----6---/-7---\-6---/--7------| This is played
E|---4---/-5---\-4------2----4---/-5---\-4---/--7------| by other guitar

e|---------------------------------------------------|
B|--------------4------------------------------------|
G|----6p-4---6--6--6-----6-----6------4h-6--4--------|
D|---------------------------------------------------|
A|-------------------------------------------------\-|
E|---------------------------------------------------|  \
                                                     /repeat 2x
e|------------------------------------------7-----|  /
B|------------4-----------------------4h-5--------|
G|--6p-4---6--6--6------6-----6-------------------|
D|------------------------------------------------|
A|------------------------------------------------|
E|------------------------------------------------|


Solo:
     ...Holy....... Grease Lighti'n.......Fast/////////....

    B5
e|---------------------------------------------------------------------|
B|-------12p10p8------8h10h12p10p8------8h10h12p10p8------8h10h12p10p8-|
G|-11p9p8-------11p9p8------------11p9p8------------11p9p8-------------|
D|---------------------------------------------------------------------|
A|---------------------------------------------------------------------|
E|---------------------------------------------------------------------|

   A5
e|-9h10p9-------------------------------------------|
B|-------12p10p8----8h10p8--------------------------|
G|--------------11p9------11p9p7----7h9p7-----------|
D|------------------------------11p9-----11p9p7-----|
A|---------------------------------------------10p9-|
E|--------------------------------------------------|

              B5
e|------------------------------------------9--7--10--9/==-17~---|
B|-----------------------------8--7--10--8-----------------------|
G|---------------7------9--7-------------------------------------|
D|----7-9----11-----11-------------------------------------------|
A|-10------------------------------------------------------------|
E|---------------------------------------------------------------|

      A5                          C#5. C#5. C#5
e|--15--14--12\--7~------12--10--9~~~~~------------|
B|-------------------------------------------------|
G|-------------------------------------------------|
D|-------------------------------------------------|
A|-------------------------------------------------|
E|-------------------------------------------------|

   B5
e|-12-9-------9-14-9--------9-12-9--------------------9--|
B|-----10---10-------10---10------10----------------10---|
G|--------9-------------9-----------9--------------9-----|
D|------------------------------------11---------11------|
A|---------------------------------------12--7-12--------|
E|-------------------------------------------------------|

   A5
e|-14-9-------9-14-9------9-14-9--------------------9--|
B|------12--12------12--12------12----------------12---|
G|--------11----------11----------11------------11-----|
D|----------------------------------12--------12-------|
A|------------------------------------14--9-14---------|
E|-----------------------------------------------------|


   B5                                          ==
e|-15-10------10-15-10------10-15-10------10-15-/~17~~-------|
B|------13--13--------13--13--------13--13-------------------|
G|--------12------------12------------12---------------------|
D|-----------------------------------------------------------|
A|-----------------------------------------------------------|
E|-----------------------------------------------------------|

    C#5
e|--17-------15--------17-------15-------12-------15--------|
B|-----15-12----12-15-----15-12----12-10----10-12----12-10--|
G|----------------------------------------------------------|
D|----------------------------------------------------------|
A|----------------------------------------------------------|
E|----------------------------------------------------------|

                                       B5
e|-12------10------12------10------10--7~~~~~~~~----------------|
B|----10-8----8-10----10-8----8-7-------------------------------|
G|--------------------------------------------------------------|
D|--------------------------------------------------------------|
A|--------------------------------------------------------------|
E|--------------------------------------------------------------|

   I don't have Trem Bar.. Just try it..
e|-------------------------------------------------|
B|---------------------------------12b====r-12~~---|
G|---(6)-Tremolo Bar---------------11b====---------|
D|-------------------------------------------------|
A|-------------------------------------------------|
E|-------------------------------------------------|


Chorus........(Play the same chords as the other Chorus Chords..)

Kimi wa kimi dake shika inai yo
Ima made mo kore kara saki ni mo
Tatoe kimi igai no subete no hito wo
Teki ni mawasu toki ga kite mo
Kimi no koto mamori nuku kara
Makenai de ichirin no hana

e|----------------------------------7------------|
B|----------------------------------7------------|
G|-----6---------6---------6-------9-------------|
D|-----6---------6---------6----/--9-----------\-|
A|-----4---------4---------4----/--7-------------|  \
E|--x---------x---------x------------------------|    \
                                                   /Played by other
e|----------------------------------2-----------|  /  Guitar:
B|----------------------------------2-----------|
G|-----6---------6---------6--------4-----------|
D|-----6---------6---------6----\---4-----------|
A|-----4---------4---------4----\---2-----------|
E|--x---------x---------x-----------------------|

Then:

e|-------------------------------------------4-------|
B|--------------4--------4-------------4h-5----------|
G|----6p-4---6--6-----6-----6--6---------------------|
D|---------------------------------------------------|
A|-------------------------------------------------\-|
E|---------------------------------------------------|  \
                                                     /repeat 2x
e|------------------------------------------7-----|  /
B|------------4---------4-------------4h-5--------|
G|--6p-4---6--6------6-----6--6-------------------|
D|------------------------------------------------|
A|------------------------------------------------|
E|------------------------------------------------|


Tablature Legend:

  h      -- hammer on
  p      -- pull off
  b      -- bend
  r      -- bend release
  ===    -- bend hold or maintain
  ^      -- bend a little
  v      -- bend more, to previous bend
  /,\    -- slide(toward, forward)
  ~      -- let ring
  x      -- Muted String
  AH     -- Artificial Harmonic
  TP     -- Tap Harmonic
  PH     -- Pitch Harmonic
  NH     -- Natural Harmonic
  PM     -- Palm Muted
  T      -- Tap
  t      -- Use your picking hand to create pull-off's and hammer-on's
  Tr     -- Trill


----------------------------Lyrics--------------------------------|
------------------------------------------------------------------|
http://www.animelyrics.com


Kimi  wa kimi  dake shika  inai yo
Kawari  nante  hoka  ni inainda
Kare nai de  ichirin no hana

Hikari ga matomo ni sashikomanai
Kimi wa maru de hikage ni saita hana no you
Nozonda hazu jyanakatta basho ni
Ne wo harasete ugokezu ni irunda ne

Tojikaketa kimochi haki daseba

Itami mo kurushimi mo subete wo uketomeru yo
Dakara nakanai de
Waratte ite ichirin no hana

Ima ni mo karete shimai sou na
Kimi no mujyaki na sugata ga mou ichido mitakute

Kimi no chikara ni naritainda

Tatoe kimi igai no subete no hito wo
Teki ni mawasu toki ga kite mo
Kimi no koto mamori nuku kara


Kimi wa kimi dake shika inai yo
Ima made mo kore kara saki ni mo
Tatoe kimi igai no subete no hito wo
Teki ni mawasu toki ga kite mo
Kimi no koto mamori nuku kara
Makenai de ichirin no hana


--------------Romaji Lyrics English Translation-------------------|
------------------------------------------------------------------|

You are the only "you"
There is no such thing as your replacement
Don't wilt away, single flower

 You are like a flower
That bloomed in a dark shadow
Even though you're in a place you didn't wish to be,
You can't move because of your roots

Just spit out your closed-up feelings

 I'll accept all of your pain and suffering
So please don't cry
Please smile, single flower

 I wanted to see your innocent figure
That looked as if it were about to wilt, one more time
 I want to become your strength

 Even if there comes a time
When the whole world becomes our enemy
I'll protect you


 You are the only "you"
Till now and from now on
Even if there comes a time
When the whole world becomes our enemy
I'll protect you
So don't give up, single flower

------------------------------------------------------------------------|
------------------------------------------------------------------------|
  Tabbed by      : Nazo Dela Reka
      Email      : nazo_dela_reka@yahoo.com
                   Calinan Davao City, Phillipines...

                   This is for the ALL the Anime Fanatics Here In Davao..!!!

                    ......................ROCK N' ROLL..............
Tap to rate this tab
 
# A B C D E F G H I J K L M N O P Q R S T U V W X Y Z