Song name
# A B C D E F G H I J K L M N O P Q R S T U V W X Y Z

High Flight Society - Time Is Running Out tab

Tuning: Half-Step Down

| ^   bend
| /   slide up
| ~   let ring

All guitars tuned Eb Ab Db Gb Bb eb
 {Gtr 1 - distorted electric
 {Gtr 2 - distorted electric

   {Gtr 1
eb|-------------------------------------|
Bb|------8-------8-10-----8-------8-10--|
Gb|--------7----------------7-----------|
Db|----7-------7--------7-------7-------|
Ab|--0-------0--------0-------0---------|
Eb|-------------------------------------|

   {Gtr 1
eb|-------------------------------------77----|
Bb|------8-------8-10----------------88----8--|
Gb|--------7-----------9^--7^--4^--4----------|
Db|----7-------7------------------------------|
Ab|--0-------0--------------------------------|
Eb|-------------------------------------------|
   {Gtr 2
eb|--------------------------------------|
Bb|--------------------------------------|
Gb|--2-2--2--2-2--2--2-2--2--2-2--2-2-2--|
Db|--2-2--2--2-2--2--2-2--2--2-2--2-2-2--|
Ab|--0-0--0--0-0--0--0-0--0--0-0--0-0-0--|
Eb|--------------------------------------|

   {Gtr 1
eb|-------------------------------------77--------|
Bb|------8-------8-10----------------88----8/10~--|
Gb|--------7-----------9^--7^--4^--4--------------|
Db|----7-------7----------------------------------|
Ab|--0-------0------------------------------------|
Eb|-----------------------------------------------|
   {Gtr 2
eb|--------------------------------------|
Bb|--------------------------------------|
Gb|--2-2--2--2-2--2--2-2--2--2-2--2-2-2--|
Db|--2-2--2--2-2--2--2-2--2--2-2--2-2-2--|
Ab|--0-0--0--0-0--0--0-0--0--0-0--0-0-0--|
Eb|--------------------------------------|

And then comes the verse. I just like the Intro though. :) Hope you enjoyed it! God bless.
Tap to rate this tab
 
# A B C D E F G H I J K L M N O P Q R S T U V W X Y Z