Song name
# A B C D E F G H I J K L M N O P Q R S T U V W X Y Z

High Highs - Horses tab

High Highs - Horses

Listen to the song to get the timing!

Tunning: e
         B
         G
         C#
         A
         D

Intro/Verse:

e|-------------------------------------------------------------------|
B|---3---3---3---3---2---2---2---3---0---0---0---0---0---0---0-------|
G|---4---4---4---4---2---2---2---4---0---0---0---0---0---0---0-------|
D|-------------------------------------------------------------------|
A|-2---2---2---2---0---0---0---2---------------------------------0-2-|
E|---------------------------------5---5---5---9---5---5---5---5-----|

Bridge:

e|---x-x-x-x---x-x-x-x---------------------|
B|---x-x-x-x---x-x-x-x---------------------|
G|---x-x-x-x---1-1-1-1---3-3-3-3---6-6-6-6-|
D|---5-5-5-5---3-3-3-3---0-0-0-0---0-0-0-0-|
A|---0-0-0-0---2-2-2-2---4-4-4-4---7-7-7-7-|
E|-0-0-0-0-0-2-2-2-2-2-4-4-4-4-4-7-7-7-7-7-|

e|---9-9-9-9-|   e|-9-7-7-7-7-|
B|---7-7-7-7-|   B|-7-7-7-7-7-|
G|-7-7-7-7-7-|   G|-7-7-7-7-7-|
D|-----------|   D|-----------|
A|-----------|   A|-----------|
E|-----------|   E|-----------|

Ending:

e|-9-9-9-9-7-7-7-7-|
B|-7-7-7-7-5-5-5-5-|
G|-7-7-7-7-5-5-5-5-|
D|-----------------|
A|-----------------|
E|-----------------|
Tap to rate this tab
# A B C D E F G H I J K L M N O P Q R S T U V W X Y Z