Song name
# A B C D E F G H I J K L M N O P Q R S T U V W X Y Z

High Highs - Open Season tab

Tuning: Open D [ d A F# D A D ]


Intro:

 d|----------------------------------------------------|
 A|----------------------------------------------------|
F#|--0--0--0--0--0--0--0--0--0--0--0--0--0--0--0--0--0-|
 D|----------------------------------------------------|
 A|----------------------------------------------------|
 D|-0--0--0--0--0--0--0--0--0--0--0--0--0--0--0--0--0--|


Verses:

 d|----------------------------------------------------|
 A|----------------------------------------------------|
F#|--0--0--0--0--0--0--0--0--0--0--0--0--0--0--0--0--0-|
 D|----------------------------------------------------|
 A|----------------------------------------------------|
 D|-0--0--0--0--0--0--0--0--0--0--0--0--0--0--0--0--0--|
..Get on your knees..

 
 d|----------------------------------------------------|
 A|----------------------------------------------------|
F#|--5--5--5--5--5--5--5--5--5--5--5--5--5--5--5--5--5-|
 D|----------------------------------------------------|
 A|----------------------------------------------------|
 D|-5--5--5--5--5--5--5--5--5--5--5--5--5--5--5--5--5--|
..All in your mind..



 d|----------------------------------------------------|
 A|----------------------------------------------------|
F#|--0--0--0--0--0--0--0--0--0--0--0--0--0--0--0--0--0-|
 D|----------------------------------------------------|
 A|----------------------------------------------------|
 D|-0--0--0--0--0--0--0--0--0--0--0--0--0--0--0--0--0--|
..Crawl in the backseat old friend..

 
 d|----------------------------------------------------|
 A|----------------------------------------------------|
F#|--5--5--5--5--5--5--5--5--5--5--5--5--5--5--5--5--5-|
 D|----------------------------------------------------|
 A|----------------------------------------------------|
 D|-5--5--5--5--5--5--5--5--5--5--5--5--5--5--5--5--5--|
..All in your mind..


Chorus:

 d|----------------------------------------------------|
 A|----------------------------------------------------|
F#|--7--7--7--7--7--7--7--7--7--7--7--7--7--7--7--7--7-|
 D|----------------------------------------------------|
 A|----------------------------------------------------|
 D|-7--7--7--7--7--7--7--7--7--7--7--7--7--7--7--7--7--|
..So tired of living like a..


 d|----------------------------------------------------|
 A|----------------------------------------------------|
F#|--5--5--5--5--5--5--5--5--5--5--5--5--5--5--5--5--5-|
 D|----------------------------------------------------|
 A|----------------------------------------------------|
 D|-5--5--5--5--5--5--5--5--5--5--5--5--5--5--5--5--5--|
..kite, kite, kite, kite..


*2 guitar parts here, one plays the verse riff twice, whilst
the other plays:


 d|----2--4~----2--4~----2--4--7--4--2--4-------------|
 A|---------------------------------------------------|
F#|-3~-------3~-------3~------------------------------|
 D|---------------------------------------------------|
 A|---------------------------------------------------|
 D|---------------------------------------------------|

 d|----2--4~----2--4~----2--4--7--4--2----------------||
 A|------------------------------------0--------------||
F#|-3~-------3~-------3~------------------------------||
 D|---------------------------------------------------||
 A|---------------------------------------------------||
 D|---------------------------------------------------||



LYRICS:

Get on your knees 
And I thought you can leave it all in your mind(in it) 
All in your mind(in it) 
Crawl in the backseat old friend 
It is really all in your mind(in it) 
All in your mind(should I) 

So tired of living like a kite, kite, kite, kite 

Look at all the trees in the light 
They are growing all in your mind(In it) 
All in your mind(in it) 
Look at all the leaves in the fire, 
they are burning all in your mind(In It) 
All in your mind(Should I) 

So tired of living like a kite, kite, kite, kite
Tap to rate this tab
# A B C D E F G H I J K L M N O P Q R S T U V W X Y Z