Song name
# A B C D E F G H I J K L M N O P Q R S T U V W X Y Z

High Highs - Horses tab

PLEASE READ THIS NOTE!
I don't know original tuning so here it is in drop D, it sounds as it should. I based on 
tabs by ortolano and I fixed them by my ear so here it is:

Intro/Verse:
e|-------------------------------------------------------------------|
B|---3---3---3---3---2---2---2---3---0---0---0---0---0---0---0-------|
G|---4---4---4---4---2---2---2---4---0---0---0---0---0---0---0-------|
D|-------------------------------------------------------------------|
A|-2---2---2---2---0---0---0---2---------------------------------0-2-|
D|---------------------------------5---5---5---9---5---5---5---5-----|

Bridge
e|-----------------------------------------|
B|-----------------------------------------|
G|-------------1-1-1-1---2-2-2-2---6-6-6-6-|
D|---4-4-4-4---2-2-2-2---x-x-x-x---x-x-x-x-|
A|---0-0-0-0---2-2-2-2---4-4-4-4---7-7-7-7-|
D|---0-0-0-0---2-2-2-2---4-4-4-4---7-7-7-7-|

Chorus
3x
e|---9-9-9-9-9-|
B|---7-7-7-7-7-|
G|---7-7-7-7-7-|
D|---0-0-0-0-0-| <-play gently
A|---0-0-0-0-0-| <-play gently
D|---0~~~~~~~~-| <-let ring

1x
e|---9-7-7-7-7-|
B|---7-7-7-7-7-|
G|---7-7-7-7-7-|
D|---0-0-0-0-0-| <-play gently
A|---0-0-0-0-0-| <-play gently
D|---0~~~~~~~~-| <-let ring

and at the end
e|-------------|
B|-------------|
G|-------------|
D|-------------|
A|-----0--2----|
D|--5----------|
and back to Verse etc

then in approx. 1:10
2x
e|--------------------------------------------------------------|
B|--------------------------------------------------------------|
G|-------------1-1-1-1------------------------------------------|
D|---4-4-4-4---2-2-2-2---4-4-4-4---4-4-4-4---4-4-4-4---4-4-4-4--|
A|---0-0-0-0---2-2-2-2---0-0-0-0---0-0-0-0---0-0-0-0---0-0-0-0--|
D|---0-0-0-0---2-2-2-2---0-0-0-0---0-0-0-0---0-0-0-0---0-0-0-0--|
and then

Bridge
e|-----------------------------------------|
B|-----------------------------------------|
G|-------------1-1-1-1---2-2-2-2---6-6-6-6-|
D|---4-4-4-4---2-2-2-2---x-x-x-x---x-x-x-x-|
A|---0-0-0-0---2-2-2-2---4-4-4-4---7-7-7-7-|
D|---0-0-0-0---2-2-2-2---4-4-4-4---7-7-7-7-|
chorus etc

So you play it basicly through the whole song, repeating few times, and remember, after 
the last chorus you play again part from 1:10 but very softly so

2x
e|--------------------------------------------------------------|
B|--------------------------------------------------------------|
G|-------------1-1-1-1------------------------------------------|
D|---4-4-4-4---2-2-2-2---4-4-4-4---4-4-4-4---4-4-4-4---4-4-4-4--|
A|---0-0-0-0---2-2-2-2---0-0-0-0---0-0-0-0---0-0-0-0---0-0-0-0--|
D|---0-0-0-0---2-2-2-2---0-0-0-0---0-0-0-0---0-0-0-0---0-0-0-0--|
and then

Bridge for a last time
e|-----------------------------------------|
B|-----------------------------------------|
G|-------------1-1-1-1---2-2-2-2---6-6-6-6-|
D|---4-4-4-4---2-2-2-2---x-x-x-x---x-x-x-x-|
A|---0-0-0-0---2-2-2-2---4-4-4-4---7-7-7-7-|
D|---0-0-0-0---2-2-2-2---4-4-4-4---7-7-7-7-|


that's the whole song, please rate and comment ;)
Tap to rate this tab
# A B C D E F G H I J K L M N O P Q R S T U V W X Y Z