Song name
# A B C D E F G H I J K L M N O P Q R S T U V W X Y Z

High Highs - Horses tab

-------------------------------------------------------------------------------
                             SONG NAME - Band Name
-------------------------------------------------------------------------------
Tabbed by: Jhuddi
E-mail: huddog51@aim.com

Tuning: Drop D Standard

This is my first tab! The other versions sound good, but were lacking the slide. 
I try to keep it simple, the strumming pattern is easy to figure out. 
Verse can be plucked or strummed, if strummed the open B sounds pretty good. 

e|---------------------------------------------------------------------------|
B|---(0)----------------------(0)-----------------------(0)------------------|
G|----7-----7-----7-----7-----\6-----6-----6-----/7-----\4-----4-----4-------|
D|----9-----9-----9-----9-----\7-----7-----7-----/9-----\5-----5-----5-------|
A|---------------------------------------------------------------------------|
D|--9-----9-----9-----9-----\7-----7-----7-----/9-----\5-----5-----5---------|

e|---------------------------------------------------------------------------|
B|---------------------------------------------------------------------------|
G|------/7----\4-----4-----4--------7-----------------X2----------------------|
D|------/9----\5-----5-----5--------9----------------------------------------|
A|---------------------------------------------------------------------------|
D|--/9-----\5-----5-----5-----5/7/9------------------------------------------|
     Pre-chorus (strumming) 
e|---------------------------------------------------------------------------|
B|---------------------------------------------------------------------------|
G|---------1-----2-----6-----------------------------------------------------|
D|---4-----2-----4-----7-----------------------------------------------------|
A|---0-----2-----4-----7-----------------------------------------------------|
D|---0-----2-----4-----7-----------------------------------------------------|
          Chorus
e|--9-----7------------------------------------------------------------------|
B|--7-----7------------------------------------------------------------------|
G|--7-----7-------------------(on to the second verse)-----------------------|
D|--0-----0------------------------------------------------------------------|
A|--0-----0------------------------------------------------------------------|
D|--0-----0--------------------------------------------5/7/9-----------------|

Jam, Repeat, Enjoy!
************************************

| /   slide up
| \   slide down
| h   hammer-on
| p   pull-off
| ~   vibrato
| +   harmonic
| x   Mute note
| b   Bend
| pb  Pre-bend
| br  Bend release
| pbr Pre-bend release
| brb Bend release bend

************************************
Tap to rate this tab
# A B C D E F G H I J K L M N O P Q R S T U V W X Y Z