Song name
# A B C D E F G H I J K L M N O P Q R S T U V W X Y Z

High Highs - Flowers Bloom tab

----------------------------------------------------------------
                             FLOWERS BLOOM - High Highs
----------------------------------------------------------------
Tabbed by: Bowen Jones
E-mail: jonesb93@gmail.com

Tuning: Standard

Verse:

e|---------------------10---10--------------------------|
B|----8---8---10---10-------------8---8---8---8---------|
G|------------------------------------------------------| x6
D|------------------------------------------------------|
A|--6--6----8---8---------------6--6----6--6------------|
E|--------------------6---6-----------------------------|

After the 4th play through of the above riff, a second guitar comes in

e|------------------------------------------------------|
B|------------------------------------------------------|
G|------------7-5---------------------------------------| x2
D|--5---5/7---------5-----------------------------------|
A|------------------------------------------------------|
E|------------------------------------------------------|

Chorus:

   Gm     A    Gm    F
e|--3-----1-----3----1----------------------------------|
B|--3-----3-----3----1----------------------------------|
G|--3-----3-----3----2----------------------------------|
D|--5-----3-----5----3----------------------------------| x2
A|--5-----1-----5----3----------------------------------|
E|--3-----------3----1----------------------------------|

Post-chorus

        Gm              A               
e|------------------------------------------------------|
B|--------3---------------3----6---------3---------6----|
G|----3---------5----7--------------3---------3---------| x2
D|--5----5----7----7----3----3----5----5----5----3------|
A|------------------------------------------------------|
E|------------------------------------------------------|


Outro:

   Gm     A    Gm    F
e|--3-----1-----3----1----------------------------------|
B|--3-----3-----3----1----------------------------------|
G|--3-----3-----3----2----------------------------------|
D|--5-----3-----5----3----------------------------------| x2
A|--5-----1-----5----3----------------------------------|
E|--3-----------3----1----------------------------------|

e|------------------------------------------------------|
B|---------3---------3---------3---------6--------------|
G|----3---------3---------3---------5-------------------|
D|--5----5----5----5----5----5----7----7----------------| x2
A|------------------------------------------------------|
E|------------------------------------------------------|

    A
e|--1--|
B|--3--|
G|--3--|
D|--3--|
A|--1--|
E|-----|
    

************************************

| /   slide up
| \   slide down
| h   hammer-on
| p   pull-off
| ~   vibrato
| +   harmonic
| x   Mute note
| b   Bend
| pb  Pre-bend
| br  Bend release
| pbr Pre-bend release
| brb Bend release bend

************************************
Tap to rate this tab
 
# A B C D E F G H I J K L M N O P Q R S T U V W X Y Z