Guitaretab - guitar tabs
Song name
# A B C D E F G H I J K L M N O P Q R S T U V W X Y Z

High On Fire - Rumors Of War tab

This is a tab for Rumors of war by High on Fire.
It's a pretty easy song but listen carefully so you get the timing.
Play it with loads of distorsion!

Intro/verse

|--------------------------------------------|
|--------------------------------------------|
|--------------------------------------------|
|--------------------------------------------|
|-----/14-14-14-14-14-14-14-14-14-14-14-14-14|
|-----/12-0--0--0--0--0--0--0--0--0--0--0--0-| 

|--------------------------------------------|
|--------------------------------------------|
|--------------------------------------------|
|--------------------------------------------|
|---14/14-14-14-14-14-14-14-14-14-14-14-14-14|
|----0/12-0--0--0--0--0--0--0--0--0--0--0--0-| 

|--------------------------------------------|
|--------------------------------------------|
|--------------------------------------------|
|--------------------------------------------|
|---12/14-14-14-14-14-14-14-14-14-14-14-14-14|
|---10/12-0--0--0--0--0--0--0--0--0--0--0--0-| 

|--------------------------------------------|
|--------------------------------------------|
|--------------------------------------------|
|--------------------------------------------|
|---12/14-14-14-14-14-14-14-14-14-14-14-14-14|
|---10/12-0--0--0--0--0--0--0--0--0--0--0--0-| 


[ Tab from: http://www.guitaretab.com/h/high-on-fire/113096.html ]
|--------------------------------------------|
|--------------------------------------------|
|--------------------------------------------|
|--------------------------------------------|
|12/12-12-12-12-12-12-12-12-12-12-12-12-12-10|
|-0/10-10-10-10-10-10-10-10-10-10-10-10-10-10| 


|--------------------------------------------|
|--------------------------------------------|
|--------------------------------------------|
|--------------------------------------------|
|12/12-12-12-12-12-12-12-12-12-12-12-12-12-12|
|-0/10-10-10-10-10-10-10-10-10-10-10-10-10-10|

|--------------------------------------------|
|--------------------------------------------|
|--------------------------------------------|
|--------------------------------------------|
|---12/14-14-14-14-14-14-14-14-14-14-14-14-14|
|---10/12-0--0--0--0--0--0--0--0--0--0--0--0-| 

|--------------------------------------------|
|--------------------------------------------|
|--------------------------------------------|
|--------------------------------------------|
|---14/14-14-14-14-14-14-14-14-14-14-14-14-14|
|----0/12-0--0--0--0--0--0--0--0--0--0--0--0-|

Chorus

|--------------------------------------------|
|----------------------9-9-9-9-9-9-9-9-------|
|----------------------9-9-9-9-9-9-9-9-------|
|----------------------7-7-7-7-7-7-7-7-------|
|----8-12-11--8--5-5/8-----------------------|
|----6-10--9--6--3-3/6-----------------------| 

|--------------------------------------------|
|----------------------9-9-9-9-9-9-9-9-------|
|----------10-9-7------9-9-9-9-9-9-9-9-------|
|-----------8-7-5------7-7-7-7-7-7-7-7-------|
|----8-12-8----------------------------------|
|----6-10-6----------------------------------| 

That's it!
I didn't bother to figure out the solo.
My first tab btw!
Related for Rumors Of War tab
Advertisement will be closed in 10 seconds