Song name
# A B C D E F G H I J K L M N O P Q R S T U V W X Y Z

High On Fire - Cyclopean Scape tab

Cyclopean Scape
by High on Fire
from Death is this Communion

Tabbed by Willothius

[Last post for now. Currently working on some of the 'fatter' songs of the Blessed Black
album. (But not in the first place for you, mainly for my own mind-bulging pleasure...)
track has some really uncommon riffs in the first part, and the second part where the 
begins is really satisfying to play (and grunt out the 'Cataclysm to the elder
lyrics) Not really sure about some things though, mainly fills, 'cause they're the 
to hear with all the drums bantering about...Again, no solo's, sorry!]


Tuning: C-F-Bb-Eb-G-C

Riff 1:
|-------------------------------------------------------------------|-----------------|
|-------------------------------------------------------------------|-----------------|
|-------------------------------------------------------------------|-----------------|
|-------------------------------------------------------------------|-----------------|
|-2-8-8-8-8~~~~~~-2-8-8-8-8h6-2-2-2h8-8-8-8-8~~~~~~-2h3-2---2h5-2h9-|-9p8-8-8-8~~~~~~-|
|-0-6-6-6-6~~~~~~-0-6-6-6-6h4-0-0-0h6-6-6-6-6~~~~~~-0---0---0h3-0h7-|-7p6-6-6-6~~~~~~-|
    . . .         . . . .     . .     . . .                             . .

-------------------------------------------------------------|
-------------------------------------------------------------|
-------------------------------------------------------------|
-7-7-7-6-4-6-6-6-6-5-3-5-------------------------------------|
-5-5---------4-4---------9-9-9-8-6-8-8~~~~~~-2h3-2h3-2h5-2h9-|
-------------------------7-7---------6~~~~~~-0---0h1-0h3-0h7-|
 . .         . .         . .

|-------------------------------------------------------------------|-----------------|
|-------------------------------------------------------------------|-----------------|
|-------------------------------------------------------------------|-----------------|
|-------------------------------------------------------------------|-----------------|
|-9p8-8-8-8~~~~~~-2-8-8-8-8h6-2-2-2h8-8-8-8-8~~~~~~-2h3-2---2h5-2h9-|-9p8-8-8-8~~~~~~-|
|-7p6-6-6-6~~~~~~-0-6-6-6-6h4-0-0-0h6-6-6-6-6~~~~~~-0---0---0h3-0h7-|-7p6-6-6-6~~~~~~-|
      . .         . . . .     . .     . . .                             . .

---------------------------------------------------------------------------------|
---------------------------------------------------------------------------------|
---------------------------------------------------------------------------------|
-7-7-7-6-4-6-6-6-6-5-3-5---------------------------------------------------------|
-5-5---------4-4---------9-9-9-8-6-8-8~~~~~~-2h4-4h5-5h7-7h8-5h7-7h8-8h10-10h12--|
-------------------------7-7---------6~~~~~~-0h2-2h3-3h5-5h6-3h5-5h6-6h8---8h10--|
 . .         . .         . .

2x Riff 1

Riff 2:
|-----------------------------------------------------------------|
|-----------------------------------------------------------------|
|-9-------7-------9-------3-------5-------7-------9-------7~~~~---|
|-9-------7-------9-------3-------5-------7-------9-------7~~~~---|
|-7-------5-------7-------1-------3-------5-------7-------5~~~~---|
|-----------------------------------------------------------------|

2x Riff 2
1x Riff 1
2x Riff 2

Riff 3:
|-----------------------------------------------------------------|
|-----------------------------------------------------------------|
|-----------------------------------------------------------------|
|-----------------------------------------------------------------|
|-----------------3-------------------------------3---------------|
|-3-2-0---0-0-0-------0---0-0-0---3-2-0---0-0-0-------0---0-0-0---|

|-----------------------------------------------------------------|
|-----------------------------------------------------------------|
|-----------------------------------------------------------------|
|---------------------------------8-------7-----------------------|
|-----------------3---------------6-------5-------7/13---13---13--|
|-3-2-0---0-0-0-------0---0-0-0-------------------5/11---11---11--|

Riff 4:
|-----------------------------------------------------------------|
|-----------------------------------------------------------------|
|-----------------------------------------------------------------|
|-----------------1-------------------------------3-------1-------|
|-3-2-0---0-0-0-------0---0-0-0---3-2-0---0-0-0-------0-------0---|
|-----------------------------------------------------------------|

|-----------------------------------------------------------------|
|-----------------------------------------------------------------|
|-----------------------------------------------------------------|
|-----------------1---------------8-------7-----------------------|
|-3-2-0---0-0-0-------0---0-0-0---6-------5-------7/13---13---13--|
|-------------------------------------------------5/11---11---11--|

2x Riff 3
1x Riff 4
1x Riff 3

Riff 5:
|---------------------------------|----------------------------------|
|---------------------------------|----------------------------------|
|---------------------------------|----------------------------------|
|---------------------------------|----------------------------------|
|-4-4-4-4-5-4-4-4-4-4-4-4-2---2-5-|-4-4-4-4-2-4-4-4-4-4-4-4-2--5--4--|
|-2-2-2-2-2-2-2-2-2-2-2-2-2-2-2-2-|-2-2-2-2-2-2-2-2-5-2-2-2-0--3--2--|

|---------------------------------|----------------------------------|
|---------------------------------|----------------------------------|
|---------------------------------|----------------------------------|
|---------------------------------|----------------------------------|
|-4-4-4-4-5-4-4-4-4-4-4-4-2---2-5-|-4-4-4-4-2-4-4-4-7--7--7--2--2--5-|
|-5-2-2-2-2-2-2-2-2-2-2-2-2-2-2-2-|-2-2-2-2-2-2-2-2-5--5--5--0--0--3-|

|---------------------------------|----------------------------------|
|---------------------------------|----------------------------------|
|---------------------------------|----------------------------------|
|---------------------------------|----------------------------------|
|-4-4-4-4-5-4-4-4-4-4-4-4-2---2-5-|-4-4-4-4-2-4-4-4-4-4-4-4-2--5--4--|
|-2-2-2-2-2-2-2-2-2-2-2-2-2-2-2-2-|-2-2-2-2-2-2-2-2-5-2-2-2-0--3--2--|

|---------------------------------|----------------------------------------|
|---------------------------------|----------------------------------------|
|---------------------------------|----------------------------------------|
|---------------------------------|----------------------------------7~~~~-|
|-4-4-4-4-5-4-4-4-4-4-4-4-2---2-5-|-2--5--4--7--2--4--5--7-----5-----5~~~~-|
|-4-2-2-2-2-2-2-2-2-2-2-2-2-2-2-2-|-0--3--2--5--0--2--3--5--0--5-----------|
2x Riff 5

Riff 6:
|-------------------------------------------------------------------|
|-------------------------------------------------------------------|
|-------------------------------------------------------------------|
|-------------------------------------------------------------------|
|-7-7-7-7-7-7-7-7-7-7-7-7-7-7-7-5-3-3-3-3-3-3-3-3-3/6-6/10-10/6-3h5-|
|-5-5-5-5-5-5-5-5-5-5-5-5-5-5-5-3-1-1-1-1---1-1-1-1/4-4/8--8 /4-----|

4x Riff 6 
2x Riff 2 

2x Riff 3
1x Riff 4
1x Riff 3
2x Riff 5

THE END!!
Tap to rate this tab
# A B C D E F G H I J K L M N O P Q R S T U V W X Y Z