Guitaretab - guitar tabs
Song name
# A B C D E F G H I J K L M N O P Q R S T U V W X Y Z

High On Fire - Devilution tab

Devilution
by High on Fire
from Blessed Black Wings

tabbed by Willothius

[Great tempo, and great modulations in the verses, really cool ending imho... Cometh 
Hessian coming soon!]

Tuning: C-F-Bb-Eb-G-C




Riff 1:
|---------------------------------------------------------|
|---------------------------------------------------------|
|---------------------------------------------------------|
|---------------------------------7---------------7--7--7-|
|-8-------------------------------5---------------5--5--5-|
|-6---0-0-0-0-0-0-0-0-0-0-0-0-0-0-----0-0-0-0-0-0---------|

|--------------------------------------------------------------------|
|--------------------------------------------------------------------|
|--------------------------------------------------------------------|
|-9------------------------------------------------------------------|
|-7-------------------------------10-10-10-9-9-9-8-8-8-8-8-8-7-7-5-5-|
|-----0-0-0-0-0-0-0-0-0-0-0-0-0-0------------------------------------|

|---------------------------------------------------------|
|---------------------------------------------------------|
|---------------------------------------------------------|
|-9-----------------------------------------------7--7--7-|
|-7-------------------------------8---------------5--5--5-|
|-----0-0-0-0-0-0-0-0-0-0-0-0-0-0-6---0-0-0-0-0-0---------|

[donít play this the 3rd time!.....................................]
|-----------------------------------------------------------------|
|-----------------------------------------------------------------|
|-----------------------------------------------------------------|
|-9-------------------------------5-5-5-5-5-5-5-5-7-7-7-7-7-7-----|
|-7-------------------------------6-6-6-6-6-6-6-6-8-8-8-8-8-8-----|
|-----0-0-0-0-0-0-0-0-0-0-0-0-0-0-----------------------------0---|

1x Riff 1 Gtr I only
1x Riff 1 Gtr I + II
1x Riff 1 wihtout last bar!
Break 1:                    3x
||--------------------------||
||--------------------------||
||o------------------------o||
||--9-----------12---7---7--||
||o-7-----------10---5---5-o||
||--------------------------||

|--------------------------|-------------|
|--------------------------|-------------|
|--------------------------|-------------|
|--9-----------10----------|-10----------|
|--7-----------8----8---8--|-8----8---8--|
|-------------------6---6--|------6---6--|

1x break 1

Verse:
|-----------------------------------------------------------------|
|-----------------------------------------------------------------|
|-----------------------------------------------------------------|
|-----------------------------------------------------------------|
|-------------------------------------------------9-8-5---6-7-6---|
|-6-6-6-6-6-6-6-6-6-6-6-6-6-6-6-6-6-6-6-6-6-6-6-6-------7-------7-|
[ Tab from: http://www.guitaretab.com/h/high-on-fire/113318.html ]
|------------------------------------------------------------------|
|------------------------------------------------------------------|
|------------------------------------------------------------------|
|------------------------------------------------------------------|
|-------------------------------------------------8--9--7--8--5--7-|
|-6-6-6-6-6-6-6-6-6-6-6-6-6-6-6-6-6-6-6-6-6-6-6-6-6--7--5--6--3--5-|

|-----------------------------------------------------------------|
|-----------------------------------------------------------------|
|-----------------------------------------------------------------|
|-----------------------------------------------------------------|
|-------------------------------------------------5-4-2---2-3-2---|
|-2-2-2-2-2-2-2-2-2-2-2-2-2-2-2-2-2-2-2-2-2-2-2-2-------3-------3-|

|------------------------------------------------------------------|
|------------------------------------------------------------------|
|------------------------------------------------------------------|
|------------------------------------------------------------------|
|-------------------------------------------------4--5--2--6--7--2-|
|-2-2-2-2-2-2-2-2-2-2-2-2-2-2-2-2-2-2-2-2-2-2-2-2-2--3--0--4--5--0-|

2x Verse 1

Chorus:
|-----------------------------------------------------------------|
|-----------------------------------------------------------------|
|-----------------------------------------------------------------|
|-----------------------------------------------------5-----------|
|-2---7-----------2---7-----------2---7-----------5---------------|
|-0-------0-0-0-0-0-------0-0-0-0-0-------0-0-0-0---------0-0-0-0-|
          . . . .         . . . .         . . . .         . . . .

		              [donít play tis the last time!....]  [last time....]
|-----------------------------------------------------------------|   ||--------------||
|-----------------------------------------------------------------|   ||--------------||
|-----------------------------------------------------------------|   ||-------------o||
|-----------------------------------------------------------------|   ||-10-----------||
|-2---7-----------2---7-----------2---7---------------8-----------|   ||-8----8---8--o||
|-0-------0-0-0-0-0-------0-0-0-0-0-------0-0-0-0-6-------0-0-0-0-|   ||------6---6---||
          . . . .         . . . .         . . . .         . . . .
2x Chorus
2x Verse 2
2x Chorus
2x Verse 
2x Chorus without the difference in the end! 
1x break 1
2x verse 3
2x Chorus without the difference in the end!


Ending:
|-------------------------------------|
|-------------------------------------|
|-7--------------------------7--------|
|-5--9--7--9--7--------------5--9--7--|
|----7--5--7--5--9--9--8--5-----7--5--|
|----------------7--7--6--3-----------|

|-----------------------------------------------------------------|
|-----------------------------------------------------------------|
|-----------------------------------------------------------------|
|-----------------------------------------------------5-----------|
|-2---7-----------2---7-----------2---7-----------5---------------|
|-0-------0-0-0-0-0-------0-0-0-0-0-------0-0-0-0---------0-0-0-0-|
          . . . .         . . . .         . . . .         . . . .

3x Ending

Finish:
|---------------------------------------------|
|---------------------------------------------|
|-7--------------------------7----------------|
|-5--9--7--9--7--------------5--9--7--7-\-\---|
|----7--5--7--5--9--9--8--5-----7--5--7-\-\---|
|----------------7--7--6--3-----------0-\-\---|

END!
Related for Devilution tab
Devilution chords by High On Fire