Song name
# A B C D E F G H I J K L M N O P Q R S T U V W X Y Z

High On Fire - Holy Flames Of The Fire Spitter tab

Holy Flames of the Fire Spitter
High on Fire
Tabbed by LazyTab

Tuning: 2 Steps Down

Notes: These are all of the riffs, minus the solo and the rhythm for the solo, which is
by the bass guitarist. Pike plays a custom, 9-string guitar to produce a chorus-like
for the three high strings. If you have any corrections or additions, feel free to 
me at jalonkas@gmail.com.  Cheers!

- LazyTab


|----------------------------------------------------------------------------------|
|----------------------------------------------------------------------------------|
|----------------------------------------------------------------------------------|
|----------------------------------------------------------------------------------|
|----------------------------------------------------------------------------------|
|-0--------------------------------------------------------------------------------|
*With heavy flanger effect.

|------------------------------------------------------------------------------|
|------------------------------------------------------------------------------|
|------------------------------------------------------------------------------|
|------------------------------------------------------------------------------|
|-14~---------14\12-12/14--------12/14-9~-------12~-------14~-------12~--------|
|-12~--000000-12\10-10/12-000000-10/12-7~--0000-10~--0000-12~--0000 10~---0000-|
       ......             ......           ....      ....      ....       ....

|------------------------------------------------------------------------------|
|------------------------------------------------------------------------------|
|------------------------------------------------------------------------------|
|------------------------------------------------------------------------------|
|-14~---------14\12-12/14--------12/14-9~-------12~-------15~-------12~--------|
|-12~--000000-12\10-10/12-000000-10/12-7~--0000-10~--0000-13~--0000 10~---0000-|
       ......             ......           ....      ....      ....       ....

|----------------------------------|
|----------------------------------|
|----------------------------------|
|----------------------------------|
|-14~---------14\12-12/14----------|
|-12~--000000-12\10-10/12-00000000-|
       ......             ........

|---------------------------------------------------------------------------------|
|---------------------------------------------------------------------------------|
|---------------------------------------------------------------------------------|
|---------------------------------------------------------------------------------|
|-15-15-15-15-15-15-15-15-12-12-12-12-12-12-12-12-8-8-8-8-8-8-8-8-5-5-5-5-5-5-5-5-|
|-13-13-13-13-13-13-13-13-10-10-10-10-10-10-10-10-6-6-6-6-6-6-6-6-3-3-3-3-3-3-3-3-|
  .  .  .  .  .  .  .  .  .  .  .  .  .  .  .  .  . . . . . . . . . . . . . . . .

|--------------------------------------------------------------|
|--------------------------------------------------------------|
|---------4/16-15~------------------4/16-15---15/19-18---16\15-|
|---------x----x--------------------x----x----x-----x----x-----|
|-7-------2/14-13~----------7-------2/14-13---13/17-16---14\13-|
|-0-----------------17\-----0----------------------------------|


|--------------------------------------------------------------|
|--------------------------------------------------------------|
|-------------------------------Fire-Spitter!------------------|
|--------------------------------------------------------------|
|-14~----9-10---12---13-13-13---13-13-13---13-13-13---13-13-13-|
|-12~----9-10---12---13-13-13---13-13-13---13-13-13---13-13-13-|
                     .  .  .    .  .  .    .  .  .    .  .  .

|----------------------------------------|
|----------------------------------------|
|----------------------------------------|
|----------------------------------------|
|-9~---11-12---14---16~----20-19---17-16-|
|-7~---9--10---12---14~----18-17---15-14-|


|-12-----|
|-15b17--|
|--------|
|--------|
|-14\----|
|-12\----|
Tap to rate this tab
 
# A B C D E F G H I J K L M N O P Q R S T U V W X Y Z