Guitaretab - guitar tabs
Song name
# A B C D E F G H I J K L M N O P Q R S T U V W X Y Z

High On Fire - Snakes For The Divine tab

Snakes for the Divine
High on Fire
Tabbed by LazyTab

Tuning: 2 Steps Down

Notes: These are all of the riffs, minus the solo and the rhythm for the solo, which is
by the bass guitarist. Pike plays a custom, 9-string guitar to produce a chorus-like
for the three high strings. If you have any corrections or additions, feel free to 
me at jalonkas@gmail.com.

Cheers!

- LazyTab


|-7p0-----7p0-5p0-7p0-----7p0-5p0-7p0-----7p0-5p0-7p0-5p0-10p0-9p0-|
|-----5p0-------------5p0-------------5p0--------------------------|
|------------------------------------------------------------------|
|------------------------------------------------------------------|
|------------------------------------------------------------------|
|------------------------------------------------------------------|


|-3p0-----3p0-----3p0-----3p0-----5p0-----5p0-----5p0-3p0-2p0------|
|-----5p0-----5p0-----5p0-----5p0-----3p0-----3p0-------------3p0--|
|------------------------------------------------------------------|
|------------------------------------------------------------------|
|------------------------------------------------------------------|
|------------------------------------------------------------------|


|----------------------------------------------------------------------|
|----------------------------------------------------------------------|
|----------------------------------------------------------------------|
|----------------------------------------------------------------------|
|-14\------------------------------------------------------------------|
|-12\-0000000000000000000000000000000000000000000000000000000000000000-|
      ................................................................

|-------------------------------------------------------------------------------------|
|-------------------------------------------------------------------------------------|
|-------------------------------------------------------------------------------------|
|-------------------------------------------------------------------------------------|
|-14--12-------14--8-------14--5-------14--3-------3--2-------------------------------|
|-12--10--0000-12--6--0000-12--3--0000-12--1--0000-1--0--0000000000000000000000000000-|
          ....        ....        ....        ....       ............................

|--------------------------------------------------------------------------|
|--------------------------------------------------------------------------|
|--------------------------------------------------------------------------|
|--------------------------------------------------------------------------|
|-8--8-----8--8-----12--12-----12--12-----14\------------------------------|
|-6--6--0--6--6--0--10--10--0--10--10--0--12\-0000000000000000000000000000-|
                                              ............................

|--------------------------------------------------------------------|
|--------------------------------------------------------------------|
|--------------------------------------------------------------------|
|--------------------------------------------------------------------|
|-5--5--5--5--5--5--5--5--5--5--5--5--5------------------------------|
|-3--3--3--3--3--3--3--3--3--3--3--3--3-0000000000000000000000000000-|
                                        ............................
[ Tab from: http://www.guitaretab.com/h/high-on-fire/238038.html ]
|--------------------------------------------------------------------|
|--------------------------------------------------------------------|
|--------------------------------------------------------------------|
|--------------------------------------------------------------------|
|-8--8--8--8--8--8--8--8--8--8--8--8--8------------------------------|
|-6--6--6--6--6--6--6--6--6--6--6--6--6-3333333333333333333333333333-|
                                        ............................

|----------------------------------------------------------------------|
|----------------------------------------------------------------------|
|----------------------------------------------------------------------|
|----------------------------------------------------------------------|
|-5-/8--5--12--11--8--5-/8--5--12--11--8-------------------------------|
|-3-/6--3--10---9--6--3-/6--3--10---9--6--6666666666666666666666666666-|
                                          ............................

|------------------------------------------|
|------------------------------------------|
|------------------------------------------|
|------------------------------------------|
|-5-/8--5--12--11--8--5-/8--5--15--14--12--|
|-3-/6--3--10---9--6--3-/6--3--13--12--10--|


|-------------------------------------------|
|-------------------------------------------|
|-------------------------------------------|
|-------------------------------------------|
|-14----------------10--------10----5--5----|
|-12-----------------8---------7----3--2p0--|


|-solo-?--------------------------------------------------------------------|
|---------------------------------------------------------------------------|
|---------------------------------------------------------------------------|
|---------------------------------------------------------------------------|
|---------------------------------------------------------------------------|
|---------------------------------------------------------------------------|


|-------------------------------------|
|-------------------------------------|
|-------------------------------------|
|-------------------------------------|
|-5--5--5--5--5--5--5--5--5--5--5--5--|
|-3--3--3--3--3--3--3--3--3--3--3--3--|


|-solo-?--------------------------------------------------------------------|
|---------------------------------------------------------------------------|
|---------------------------------------------------------------------------|
|---------------------------------------------------------------------------|
|---------------------------------------------------------------------------|
|---------------------------------------------------------------------------|


|------0---------------------------------------------------|
|--------0-------------------------------------------------|
|----------3b4--/7-----------------------------------------|
|------------------------------2h3p2p0-2--0----------------|
|-2-------------------3----------------------1h2p1p0-1--0--|
|-0-------------------1------------------------------------|


|------0---------------------------------------------------|
|--------0-------------------------------------------------|
|----------3b4---------------------------------------------|
|------------------------------2h3p2p0-2--0----------------|
|-2-------------------3----------------------1h2p1p0-1--0--|
|-0-------------------1------------------------------------|


|-----------------------------------------------------------------|
|-----------------------------------------------------------------|
|-----------------------------------------------------------------|
|-------6-----------6-----3/6-----------6-------------------------|
|-2-----4-----5-----4-----1/4-5/8-2-----4-----5---2-5-3/9-8\6-5/6-|
|-0-0-0---0-0-3-0-0---0-0-----3/6-0-0-0---0-0-3-0-0-3-1/7-6\4-3/4-|
    . .   . .   . .   . .           . .   . .   .
Related for Snakes For The Divine tab
×
Best way to learn
"Snakes For The Divine"