Song name
# A B C D E F G H I J K L M N O P Q R S T U V W X Y Z

High On Fire - 10000 Years tab

-------------------------------------------------------------------------------
			   10,000 Years - High On Fire
-------------------------------------------------------------------------------
Tabbed by: beckyjc
Email: nostalker@lol.com

Looked around for this tab, couldnt find it anywhere, so i had a go at doing it myself, 
not spot on, and isnt the whole song, but you'll get the idea, it isnt especially hard 
you get the feel down.

Tuning: I used C# standard...

C#|----------------------------|----------------------------|
G#|----------------------------|----------------------------|
E |----------------------------|----------------------------|
B |----------------------------|----------------------------|
F#|----------------------------|----------------------------|
C#|--4-----4--7--7s-4--4--7----|--10s9--9s-7--9s-7s-4-------|


----------------------------|----------------------------|
----------------------------|----------------------------|
----------------------------|----------------------------|
----------------------------|----------------------------|
----------------------------|----------------------------|
--12s10-10s9--10s9s-7-------|--10s9--9s-7--7-----4-------|


----------------------------|----------------------------|
----------------------------|----------------------------|
----------------------------|----------------------------|
----------------------------|----------------------------|
----------------------------|----------------------------|
--4-----4--7--7s-4--4--7----|--10s9--9s-7--9s-7s-4-------|


----------------------------|----------------------------|----------|
----------------------------|----------------------------|----------|
----------------------------|----------------------------|----------|
----------------------------|----------------------------|--6--6----|
----------------------------|----------------------------|--6--6----|
--12s10-10s9--10s9s-7-------|--10s9--9s-7--7-----4-------|--4--4----|


----------------------|----------------------|----------------|----------|
----------------------|----------------------|----------------|----------|
----------------------|----------------------|----------------|----------|
--6s-9s-6--6s-9s-6----|--11s9-----12s11------|--11s9--9s-6----|--6--6----|
--6s-9s-6--6s-9s-6----|--11s9-----12s11------|--11s9--9s-6----|--6--6----|
--4s-7s-4--4s-7s-4----|--9s-7-----10s9-------|--9s-7--7s-4----|--4--4----|


----------------------|----------------------|----------------||
----------------------|----------------------|----------------||
----------------------|----------------------|----------------||
--6s-9s-6--6s-9s-6----|--11s9-----12s11------|--11s9--9s-6----||
--6s-9s-6--6s-9s-6----|--11s9-----12s11------|--11s9--9s-6----||
--4s-7s-4--4s-7s-4----|--9s-7-----10s9-------|--9s-7--7s-4----||


Legend
L - tied note
x - dead note
h - hammer on/pull off
b - bend
s - slide
~ - vibrato
g - ghost note
> - accentuated note
t - trill
M - palm mute
. - staccato
P - popping (bass)
S - slapping (bass)
+ - tapping
W - wide vibrato
< - fade in
w - whammy bar
= - tremolo picking
v - brush up
^ - brush down
V - pick stroke up
n - pick stroke down
Tap to rate this tab
 
# A B C D E F G H I J K L M N O P Q R S T U V W X Y Z