Song name
# A B C D E F G H I J K L M N O P Q R S T U V W X Y Z

High On Fire - Blessed Black Wings tab

This isn't quite complete, but it's an improvement on previous tabs. I've done my best
to get the timings accurate; where possible, every sixteenth note is represented by two
characters, i.e. 0- is a sixteenth, 0--- is an eight and so on. I'll make a pro tab as
soon as I've figured out the ending. As always, this is tuned to High On Fire's 
standard C F A# D# G C.

Tabbed by Mansh.

Intro A

|-----------------------------------------------------------------|
|-----------------------------------------------------------------|
|--------16--15--12~~~~~~~~~-13~~~~~~~~~-9---9/13-12------8-------|
|-----------------------------------------------------------------|
|--------14--13--10~~~~~~~~~-11~~~~~~~~~-7---9/11-10------6-------|
|0-0-0-0-----------------0-0---------0-0--------------------------|

|-----------------------------------------------------------------------|
|-----------------------------------------------------------------------|
|--------16\15-15/19-----16\15-15/18-----16\15-15/19--------------------|
|--------------------------------------------------------15-15-13-13-13-|
|--------14\13-13/17-----14\13-13/16-----14\13-13/17-----15-15-13-13-13-|
|0-0-0-0-------------0-0-------------0-0-------------0-0-13-13-11-11-11-|

Intro B

|-----------------------------------------------------------------|
|-----------------------------------------------------------------|
|--------16--15--12~~~~~~~~~-13~~~~~~~~~-9---9/13-12------8-------|
|-----------------------------------------------------------------|
|--------14--13--10~~~~~~~~~-11~~~~~~~~~-7---9/11-10------6-------|
|0-0-0-0-----------------0-0---------0-0--------------------------|

|----------------------------------------------------------------|
|----------------------------------------------------------------|
|----------------------------------------------------------------|
|--------8---7---9-----------------------------------------------|
|--------6---5---7-----------12----------13------14--------------|
|0-0-0-0-6---5---7-----------10----------11------12------0-0-0-0-|

Intro C

|-----------------------------------------------------------------|
|-----------------------------------------------------------------|
|--------16--15--12~~~~~~~~~-13~~~~~~~~~-9---9/13-12------8-------|
|-----------------------------------------------------------------|
|--------14--13--10~~~~~~~~~-11~~~~~~~~~-7---9/11-10------6-------|
|0-0-0-0-----------------0-0---------0-0--------------------------|

|----------------------------------------------------------------|
|----------------------------------------------------------------|
|----------------------------------------------------------------|
|--------------------------------------------3---3///13--13--13--|
|--------5\4-4/8-----5\4-4/7-----5\4-4/8-----3---3///13--13--13--|
|0-0-0-0-3\2-2/6-0-0-3\2-2/5-0-0-3\2-2/6-0-0-1---1///11--11--11--|

Intro D

|----------------------------------------------------------------|
|----------------------------------------------------------------|
|----------------------------------------------------------------|
|--------9---8---9-----------9-----------------------------------|
|--------7---7---7-----------9-----------5---5/9-8-------4-------|
|0-0-0-0-7---6---0-----------7-----------3---3/7-6-------2-------|

|----------------------------------------------------------------|
|----------------------------------------------------------------|
|----------------------------------------------------------------|
|--------------------------------------------3---3///13--13--13--|
|--------5\4-4/8-----5\4-4/7-----5\4-4/8-----3---3///13--13--13--|
|0-0-0-0-3\2-2/6-0-0-3\2-2/5-0-0-3\2-2/6-0-0-1---1///11--11--11--|

|----------------------------------------------------------------|
|----------------------------------------------------------------|
|----------------------------------------------------------------|
|--------9---8---9-----------9-----------------------------------|
|--------7---7---7-----------9-----------5---5/9-8-------4-------|
|0-0-0-0-7---6---0-----------7-----------3---3/7-6-------2-------|

|----------------------------------------------------------------|
|----------------------------------------------------------------|
|----------------------------------------------------------------|
|--------8---7---9-----------------------------------------------|
|--------6---5---7-----------12----------13------14--------------|
|0-0-0-0-6---5---7-----------10----------11------12------0-0-0-0-|

Clean break

|------------3--------------------------------------------------|
|------------0--------------------------------------------------|
|------------0--------------------------------------------------|
|2-----------2--------------------------------------------------|
|2-----------2-----------2------/6-------5----------------------|
|0-----------------------0------/7-------6----------------------|

|------------3--------------------------------------------------|
|------------0-------------------0-------0----------------------|
|------------0-------------------0-------0----------------------|
|2-----------2-------------------2-------1----------------------|
|2-----------2-----------2--------------------------------------|
|0-----------------------0--------------------------------------|

Bridge riff

|--------------------------------|
|--------------------------------|
|--------------------------------|
|5-------5---7-------8---7---5---|
|5-------3---5-------8---7---5---|
|3-------3---5-------6---5---3---|

Verse riff

|----------------------------------------------------------------|
|----------------------------------------------------------------|
|----------------------------------------------------------------|
|----------------------------------------------------------------|
|14----------14----------14------9-------9---------------2-------|
|12------0---11------0---10--0---7---0---6-------2-0-2-3---3-2-0-|

Chorus riff

|----------------------------------------------------------------|
|----------------------------------------------------------------|
|----------------------------------------------------------------|
|----------------------------------------------------------------|
|14--------------14--------------14--------------5\4/8---5\4/12--|
|12------0-0-0-0-11------0-0-0-0-10------0-0-0-0-3\2/6---3\2/10--|

|----------------------------------------------------------------|
|----------------------------------------------------------------|
|----------------------------------------------------------------|
|----------------------------------------------------------------|
|14--------------8---------------5---------------14\\9---13\\8---|
|12------0-0-0-0-6-------0-0-0-0-3-------0-0-0-0-12\\7---11\\6---|

Intro A x1
Intro B x1
Intro C x1
Intro B x1
Intro D x2
Clean break x2
Bridge x1
Verse riff x4
Bridge x1
Verse riff x4
Bridge x1
Chorus riff x2
Verse riff x4
Bridge x1
Chorus riff x2
Intro D x2
Verse riff x4
Bridge x1
Verse riff x4
Bridge x1
Chorus riff x2
Intro C x3
Intro B x1
Tap to rate this tab
# A B C D E F G H I J K L M N O P Q R S T U V W X Y Z