Guitaretab - guitar tabs
Song name
# A B C D E F G H I J K L M N O P Q R S T U V W X Y Z

High On Fire - Blessed Black Wings tab

this is pretty spot on

its done in octive power chords on the G and A strings but not writing it
dwn coz it comes out crap becoz the digits dont line up.

----------------------------------------------------------------------------|
----------------------------------------------------------------------------|
----------------------------------------------------------------------------|
----------------------------------------------------------------------------|
-12-11-8--9-55/9-8-4--13/12-12-16--13/12-12-15-13/12-12-16-1313-11-11-11----|
-----------------------------------------------------------1313-11-11-11----|


----------------------------------------------------------------------------|
----------------------------------------------------------------------------|
----------------------------------------------------------------------------|
----------------------------------------------------------------------------|
-12-11-8--9-55/9-8-4--13-10-12---10---12---13-------------------------------|
----------------------13-10-12---10---12---13-------------------------------|


----------------------------------------------------------------------------|
----------------------------------------------------------------------------|
----------------------------------------------------------------------------|
----------------------------------------------------------------------------|
-12-11-8--9-55/9-8-4--3p2-2-6--3p2-2-5--3p2-2-6--3p2-2-12121212-------------|
----------------------3p2-2-6--3p2-2-5--3p2-2-6--3p2-2-12121212-------------|


----------------------------------------------------------------------------|
----------------------------------------------------------------------------|
----------------------------------------------------------------------------|
----------------------------------------------------------------------------|
-12-11-8--9-55/9-8-4--13-10-12---10---12---13-------------------------------|
----------------------13-10-12---10---12---13-------------------------------|


on these 4 bars only first 2 notes of each bar are octives the rest is just
top 2 strings
[ Tab from: http://www.guitaretab.com/h/high-on-fire/64788.html ]
----------------------------------------------------------------------------|
----------------------------------------------------------------------------|
----------------------------------------------------------------------------|
----------------------------------------------------------------------------|
-12-11-8--9-55/9-8-4--3p2-2-6--3p2-2-5--3p2-2-6--3p2-2-12121212-------------|
-------8--9-55/9-8-4--3p2-2-6--3p2-2-5--3p2-2-6--3p2-2-12121212-------------|

----------------------------------------------------------------------------|
----------------------------------------------------------------------------|
----------------------------------------------------------------------------|
----------------------------------------------------------------------------|
-12-11-8--9-55/9-8-4--13-10-12---10---12---13-------------------------------|
-------8--9-55/9-8-4--13-10-12---10---12---13-------------------------------|


----------------------------------------------------------------------------|
----------------------------------------------------------------------------|
----------------------------------------------------------------------------|
----------------------------------------------------------------------------|
-12-11-8--9-55/9-8-4--3p2-2-6--3p2-2-5--3p2-2-6--3p2-2-12121212-------------|
-------8--9-55/9-8-4--3p2-2-6--3p2-2-5--3p2-2-6--3p2-2-12121212-------------|

----------------------------------------------------------------------------|
----------------------------------------------------------------------------|
----------------------------------------------------------------------------|
----------------------------------------------------------------------------|
-12-11-8--9-55/9-8-4--13-10-12---10---12---13-------------------------------|
-------8--9-55/9-8-4--13-10-12---10---12---13-------------------------------|

then after all that it goes into the slow part of the song which i havnt quite
figured out yet and every time there is the drum beat imbetween the parts just
the four bangs that go i just put in four open palm mute strums of top 2 strings
to add some grunt to the song if u dont no wot i meen ohwell

HAPPY LEARNING
Related for Blessed Black Wings tab
×
Blessed Black Wings