Song name
# A B C D E F G H I J K L M N O P Q R S T U V W X Y Z

High On Fire - Face Of Oblivion tab

High on Fire - "The Face of Oblivion" (Outro Riff), from the album Blessed Black Wings [2005]

This song has two pretty distinct parts...this tab here is for the second part of the
a spine-tinglingly majestic slow-builder riff that kicks my ass every time. I HAD to
it out and when I did I had to share it. I'm about 95% confident in the accuracy of this 
the only problem being the last part of the riff which I have marked. The stuff I put
sounds close but I'm not 100% on it.

If anyone can fix that or notices another mistake, let me know: cwey4@yahoo.com

enjoy

E|---------------------------------|-----------------------------------|
B|---------------------------------|-----------------------------------|
G|-----0-1-------------------------|-----0-1---------------------------| x2
D|---------3---1-3-----------------|---------3---1-3-------------------|
A|---3-------3-----3---1-3-3---1-3-|---3------3-----3----1-3-4-3h4p3-1-|
E|-1-----------------4-------4-----|-1----------------4----------------|

E|---------------------------------|
B|---------------------------------|
G|-------------------1-0-------0---|
D|---4-3-1---------------3-1-3---1-|
A|---------4-3-1-------------------|
E|-1-------------4-4---------------|

E|---------------------------------|-----------------------------------|
B|---------------------------------|-----------------------------------|
G|---------------------------------|-----------------------------------| x2
D|-------------------1-------3-1---|-----------------------------------|
A|---4-3-1-0---1-3-----4---1-----1-|---4-3-1-0---1-3---4-2-----2-0-----|
E|-1---------1-----4-----4---------|-1---------1-----2-----2-0-----2---|
                                                     ^^^^^^^^^^^^^^^
                                                     Not 100% sure on
                                                     this part...
Tap to rate this tab
# A B C D E F G H I J K L M N O P Q R S T U V W X Y Z