Song name
# A B C D E F G H I J K L M N O P Q R S T U V W X Y Z

High School Musical - Right Here Right Now tab

-------------------------------------------------------------------------------
	          RIGHT HERE RIGHT NOW - High School Musical 3
-------------------------------------------------------------------------------
Tabbed by: drummahqueen  [my first tab - correct me if i am wrong in places]
Email: drummahqueen@gmail.com

Tuning: Capo 2
Intro:
       C                 G      
e|-----------------------------------------------------------------------------|
B|--------1--------------------3----------------3------------------------------|
G|------0-----------------------------------0----------------------------------|
D|----2-----2--------------0-------0----0--------------------------------------|
A|--3-------------------2------------------------------------------------------|
E|-------------------3---------------------------------------------------------|
            Hmmmm yeah  Hey yeah
[Verse 1:]
       C                   C                    G
e|-----------------------------------------------------------------------------|
B|-------1------------------1---------------------3---------------3------------|
G|-----0-----------------0------------------------------------0------0---------|
D|---2-----2-----------2------2---------------0------0----0-------------0------|
A|-3-----------------3---------------------2-----------------------------------|
E|--------------------------------------3--------------------------------------|
   Can you imagine? What would happen? If we could have any dream

       C                   C                    G
e|-----------------------------------------------------------------------------|
B|-------1------------------1------------------------------3--------3----------|
G|-----0-----------------0--------------------------------------------0--------|
D|---2-----2-----------2------2----------------------0----------0--------0-----|
A|-3-----------------3---------------------------2-------------------------2---|
E|--------------------------------------------3--------------------------------|
  Id wish this moment, was ours to own it and that it would never leave

       Am                            C                     F
e|-----------------------------------------------------------------------------|
B|-------------1-------------------------------1--------------------1----------|
G|----------2------------------------------0---------------------2-------------|
D|-------2--------2---------------------2--------2------------3--------3-------|
A|----0------------------------------3---------------------3-------------------|
E|-------------------------------------------------------1---------------------|
  Then I would thank that star, that made our wish come true(oh yeah)

       Am                            C                     F
e|---------------------------------------------------------------------------1-|
B|-------------1-------------------------------1--------------------1------1---|
G|----------2------------------------------0---------------------2-------2-----|
D|-------2--------2---------------------2--------2------------3-------3--------|
A|----0------------------------------3---------------------3-------------------|
E|-------------------------------------------------------1---------------------|
  Cause he knows that where you are, is where I should be too

[Chorus:] (strum)
C            G
Right here, Right now
Dm7
Im looking at you and
My Heart loves the view
F
 Cause you mean everything
C                           
Right Here, I'll promise you 
G             Dm7
 Somehow that tomorrow can wait
                         F
for some other day to be (to be)
          F           G       C
But right now there's you and me.

[Verse 2] (same chords as verse 1)(strum)
If this was forever, What could be better?
We already proved it was, But in 2,123 hours
A bend in the universe.
Gonna make everything (everything)
In our whole world change
(it's all changing, yeah)
And you know that where we are,
will never be the same oh no (oh no)

[Chorus]
C            G
Right here, Right now
Dm7
Im looking at you and
My Heart loves the view
F
 Cause you mean everything
C                           
Right Here, I'll promise you 
G             Dm7
 Somehow that tomorrow can wait
                         F
for some other day to be (to be)
          F           G       Am
But right now there's you and me.

[Bridge]
Am                              Dm7
 Oh we know it's coming (coming)
And it's coming fast
       F            G       Am
As long as theres you and me(Oh yeah)
Am
 So lets make every
            G
Second last, make it last!

[Chorus]strum once
C            G
Right here, Right now
Dm7
Im looking at you and
My Heart loves the view
F
 Cause you mean everything
-*-strum normally
C                           
Right Here, I'll promise you 
G             Dm7
 Somehow that tomorrow can wait
                         F
for some other day to be (to be)
          F           G       Am             C
But right now there's you and me.(you and me)
          Am
you and me   (Oh you and me)
          F           G        C
But right now There's you and me

[END] xD

Please correct me if i am wrong in places =]
Rate and Comment
.x

Tap to rate this tab
# A B C D E F G H I J K L M N O P Q R S T U V W X Y Z