Song name
# A B C D E F G H I J K L M N O P Q R S T U V W X Y Z

High School Musical - Work This Out chords

Song: Work This Out
Artist: High School Musical Cast

Chorus
   We've got to work.....
e|--------------------------------------------------------------------------|
B|--------------------------------------------------------------------------|
G|--------------------------6----6-6----------------------------------------|
D|---------------8----8-8---6----6-6--6----6-6--5----5--6-------------x2----|
A|---------------8----8-8---4----4-4--6----6-6--5----5--6-------------------|
E|---------------6----6-6-------------4----4-4--3----3--4-------------------|

Lead into verse
e|-----||-------------------------------------------------------------------|
B|-----||-------------------------------------------------------------------|
G|-----||-------------------------------------------------------------------|
D|-8-8-||---8-8--8--8-----x3------------------------------------------------|
A|-8-8-||---8-8--8--8-------------------------------------------------------|
E|-6-6-||---6-6--6--6-------------------------------------------------------|

Repeat chorus

Repeat Lead into verse but instead of playing it three times, play it once!

Kitchen Music Break

BANG BANG BANG BANG....

Final CHorus

e|--------------------------------------------------------------------------|
B|--------------------------------------------------------------------------|
G|---------------8---8-8----------------------------------------------------|
D|--10---10-10---8---8-8--8---8-8--7--7--8------------------x2--------------|
A|--10---10-10---6---6-6--8---8-8--7--7--8----------------------------------|
E|--8----8--8-------------6---6-6--5--5--6----------------------------------|

e|------||------------------------------------------------------------------|
B|------||------------------------------------------------------------------|
G|------||------------------------------------------------------------------|
D|-10-10||----10-10-10-10--10--------------------------------x2-------------|
A|-10-10||----10-10-10-10--10-----------------------------------------------|
E|-8--8-||----8--8--8---8---8-----------------------------------------------|

e|--------------------------------------------------------------------------|
B|--------------------------------------------------------------------------|
G|--------------------------------------------------------------------------|
D|---7--8--10---------------------------------------------------------------|
A|---7--8--10---------------------------------------------------------------|
E|---5--6--8----------------------------------------------------------------|
Tap to rate this tab
# A B C D E F G H I J K L M N O P Q R S T U V W X Y Z