Song name
# A B C D E F G H I J K L M N O P Q R S T U V W X Y Z

High Voltage 21 - Into Ashes tab

(intro high distortion)
e-------------------------------------------------------|
B-------------------------------------------------------|
G-------------------------------------------------------|
D---------------------------------77--777-7777-00-------|
A---------------------------------77--777-7777-00-------|
E--00-000-0000---00-----00---00---55--555-5555-00-------|
(x3)
--neck slide--
(verse)
e-------------------------------------------------------|
B-------------------------------------------------------|
G-------------------------------------------------------|
D--------------------------543-543-543-543---75---------|
A--------------------------543-543-543-543---75---------|
E--000700800070080007008---543-543-543-543---75---------|
(x3)


(bridge)
e-------------------------------------------------------|
B-------------------------------------------------------|
G-------------------------------------------------------|
D---543-543-543-543---------------------00-0-0----------|
A---543-543-543-543-7h8h9-7h8h9-7h8h9---00-0-0----------|
E---543-543-543-543-7h8h9-7h8h9-7h8h9---00-0-0----------|



(chorus)
e-------------------------------------------------------|
B-------------------------------------------------------|
G-------------------------------------------------------|
D--5--78--12-10-1213-12----5--78--12-10-12/13\12--------|
A--5--78--12-10-1213-12----5--78--12-10-12/13\12--------|
E--5--78--12-10-1213-12----5--78--12-10-12/13\12--------|



e---------------------------------------------------------|
B---------------------------------------------------------|
G---------------------------------------------------------|
D-555555-77788888-1212121212-10101010-121212-131313\121212|
A-555555-77788888-1212121212-10101010-121212-131313\121212|
E-555555-77788888-1212121212-10101010-121212-131313\121212|


--neck slide--

(verse)
e-------------------------------------------------------|
B-------------------------------------------------------|
G-------------------------------------------------------|
D--------------------------543-543-543-543---75---------|
A--------------------------543-543-543-543---75---------|
E--000700800070080007008---543-543-543-543---75---------|
(x3)


(bridge)
e-------------------------------------------------------|
B-------------------------------------------------------|
G-------------------------------------------------------|
D---543-543-543-543---------------------00-0-0----------|
A---543-543-543-543-7h8h9-7h8h9-7h8h9---00-0-0----------|
E---543-543-543-543-7h8h9-7h8h9-7h8h9---00-0-0----------|


(chorus)
e-------------------------------------------------------|
B-------------------------------------------------------|
G-------------------------------------------------------|
D--5--78--12-10-1213-12----5--78--12-10-12/13\12--------|
A--5--78--12-10-1213-12----5--78--12-10-12/13\12--------|
E--5--78--12-10-1213-12----5--78--12-10-12/13\12--------|



e---------------------------------------------------------|
B---------------------------------------------------------|
G---------------------------------------------------------|
D-555555-77788888-1212121212-10101010-121212-131313\121212|
A-555555-77788888-1212121212-10101010-121212-131313\121212|
E-555555-77788888-1212121212-10101010-121212-131313\121212|


--neck slide--

(verse)
e-------------------------------------------------------|
B-------------------------------------------------------|
G-------------------------------------------------------|
D--------------------------543-543-543-543---75---------|
A--------------------------543-543-543-543---75---------|
E--000700800070080007008---543-543-543-543---75---------|
(x3)


(bridge)
e-------------------------------------------------------|
B-------------------------------------------------------|
G-------------------------------------------------------|
D---543-543-543-543---------------------00-0-0----------|
A---543-543-543-543-7h8h9-7h8h9-7h8h9---00-0-0----------|
E---543-543-543-543-7h8h9-7h8h9-7h8h9---00-0-0----------|


(chorus)
e-------------------------------------------------------|
B-------------------------------------------------------|
G-------------------------------------------------------|
D--5--78--12-10-1213-12----5--78--12-10-12/13\12--------|
A--5--78--12-10-1213-12----5--78--12-10-12/13\12--------|
E--5--78--12-10-1213-12----5--78--12-10-12/13\12--------|



e---------------------------------------------------------|
B---------------------------------------------------------|
G---------------------------------------------------------|
D-555555-77788888-1212121212-10101010-121212-131313\121212|
A-555555-77788888-1212121212-10101010-121212-131313\121212|
E-555555-77788888-1212121212-10101010-121212-131313\121212|


(bridge)
e-------------------------------------------------------|
B-------------------------------------------------------|
G-------------------------------------------------------|
D---543-543-543-543---------------------00-0-0----------|
A---543-543-543-543-7h8h9-7h8h9-7h8h9---00-0-0----------|
E---543-543-543-543-7h8h9-7h8h9-7h8h9---00-0-0----------|



e-------------------------------------------------------|
B-------------------------------------------------------|
G-------------------------------------------------------|
D-----555555-4-555555-4-555555-4-555555--543-543-543-543|
A----------------------------------------543-543-543-543|
E----------------------------------------543-543-543-543|


solo
e------------------------------------------------12-----|
B-------------0h3-------------------------------9-------|
G----------0h3---------------------------------8--------|
D-00--0-0h3------555432-555432-555432-555432--7---------|
A-00-------------555432-555432-555432-555432----------12|
E-00-------------555432-555432-555432-555432----------10|

(x3)

e-10p9--------------------------------------------------|
B-----10p9----------------------------------------------|
G---------9p8p7-----------------------------------------|
D--------------7h8h9------------------------------------|
A-------------------9h10--------------------------------|
E-----------------------9h10----------------------------|
end solo


(bridge)
e-------------------------------------------------------|
B-------------------------------------------------------|
G-------------------------------------------------------|
D---543-543-543-543---------------------00-0-0----------|
A---543-543-543-543-7h8h9-7h8h9-7h8h9---00-0-0----------|
E---543-543-543-543-7h8h9-7h8h9-7h8h9---00-0-0----------|

(chorus)
e-------------------------------------------------------|
B-------------------------------------------------------|
G-------------------------------------------------------|
D--5--78--12-10-1213-12----5--78--12-10-12/13\12--------|
A--5--78--12-10-1213-12----5--78--12-10-12/13\12--------|
E--5--78--12-10-1213-12----5--78--12-10-12/13\12--------|



e---------------------------------------------------------|
B---------------------------------------------------------|
G---------------------------------------------------------|
D-555555-77788888-1212121212-10101010-121212-131313\121212|
A-555555-77788888-1212121212-10101010-121212-131313\121212|
E-555555-77788888-1212121212-10101010-121212-131313\121212|



(outro)
e---------------------------------------------------------|
B---------------------------------------------------------|
G---------------------------------------------------------|
D---------------------------------------------------------|
A------------------------------3--------------------------|
E-0-0-7-0-8-0-7-0-5-3-2-3-5-3-2------00-00-00-------------|
(x3)
Tap to rate this tab
 
# A B C D E F G H I J K L M N O P Q R S T U V W X Y Z