Song name
# A B C D E F G H I J K L M N O P Q R S T U V W X Y Z

High Voltage 21 - City Of Fallen Angels tab

(intro)
-------------------------------------------------------|
-------------------------------------------------------|
--6-66-66----------------------------------------------|
--6-66-66----8-88-88---4-44-44--6~---------------------|
--4-44-44----8-88-88---4-44-44--6~---------------------|
-------------6-66-66---2-22-22--4~---------------------|

-------------------------------------------------------|
-------------------------------------------------------|
-6-66-66----8-88-88------------------------------------|
-6-66-66----8-88-88----8-88-88----6~-------------------|
-4-44-44----6-66-66----6-66-66----6~-------------------|
-----------------------6-66-66----4~-------------------|


(verse)

-------------------------------------------------------|
-------------------------------------------------------|
-6666666-8888888-4444444--6666666----------------------|
-6666666-8888888-4444444--6666666-6666666-8888888------|
-4444444-6666666-2222222--6444444-6666666-8888888------|
----------------------------------4444444-6666666------|


-------------------------------------------------------|
-------------------------------------------------------|
-----------------6666666-8888888-----------------------|
-4444444-6666666-6666666-8888888-8888888--4~-----------|
-4444444-6666666-4444444-6666666-8888888--4~-----------|
-2222222-4444444-----------------6666666--2~-----------|


(chorus)
-------------------------------------------------------|
-------------------------------------------------------|
-6-66-66---------------------6-66-66-8-88-88-----------|
-6-66-66--8-88-88--4-44-44-6-6-66-66-8-88-88-4-44-44/6-|
-4-44-44--8-88-88--4-44-44-6-4-44-44-6-66-66-4-44-44/6-|
----------6-66-66--2-22-22-4-----------------4-22-22/4-|


(verse)

-------------------------------------------------------|
-------------------------------------------------------|
-6666666-8888888-4444444--6666666----------------------|
-6666666-8888888-4444444--6666666-6666666-8888888------|
-4444444-6666666-2222222--6444444-6666666-8888888------|
----------------------------------4444444-6666666------|

-------------------------------------------------------|
-------------------------------------------------------|
-----------------6666666-8888888-----------------------|
-4444444-6666666-6666666-8888888-8888888--4~-----------|
-4444444-6666666-4444444-6666666-8888888--4~-----------|
-2222222-4444444-----------------6666666--2~-----------|


(chorus)
-------------------------------------------------------|
-------------------------------------------------------|
-6-66-66---------------------6-66-66-8-88-88-----------|
-6-66-66--8-88-88--4-44-44-6-6-66-66-8-88-88-4-44-44/6-|
-4-44-44--8-88-88--4-44-44-6-4-44-44-6-66-66-4-44-44/6-|
----------6-66-66--2-22-22-4-----------------4-22-22/4-|


(verse)

-------------------------------------------------------|
-------------------------------------------------------|
-6666666-8888888-4444444--6666666----------------------|
-6666666-8888888-4444444--6666666-6666666-8888888------|
-4444444-6666666-2222222--6444444-6666666-8888888------|
----------------------------------4444444-6666666------|


-------------------------------------------------------|
-------------------------------------------------------|
-----------------6666666-8888888-----------------------|
-4444444-6666666-6666666-8888888-8888888--4~-----------|
-4444444-6666666-4444444-6666666-8888888--4~-----------|
-2222222-4444444-----------------6666666--2~-----------|


(chorus)
-------------------------------------------------------|
-------------------------------------------------------|
-6-66-66---------------------6-66-66-8-88-88-----------|
-6-66-66--8-88-88--4-44-44-6-6-66-66-8-88-88-4-44-44/6-|
-4-44-44--8-88-88--4-44-44-6-4-44-44-6-66-66-4-44-44/6-|
----------6-66-66--2-22-22-4-----------------4-22-22/4-|



(verse)

e-------------------------------------------------------|
B-------------------------------------------------------|
G-6666666-8888888-4444444--6666666----------------------|
D-6666666-8888888-4444444--6666666-6666666-8888888------|
A-4444444-6666666-2222222--6444444-6666666-8888888------|
E----------------------------------4444444-6666666------|


e-------------------------------------------------------|
B-------------------------------------------------------|
G-----------------6666666-8888888-----------------------|
D-4444444-6666666-6666666-8888888-8888888--4~-----------|
A-4444444-6666666-4444444-6666666-8888888--4~-----------|
E-2222222-4444444-----------------6666666--2~-----------|

(chorus)
-------------------------------------------------------|
-------------------------------------------------------|
-6-66-66---------------------6-66-66-8-88-88-----------|
-6-66-66--8-88-88--4-44-44-6-6-66-66-8-88-88-4-44-44/6-|
-4-44-44--8-88-88--4-44-44-6-4-44-44-6-66-66-4-44-44/6-|
----------6-66-66--2-22-22-4-----------------4-22-22/4-|

(chorus)
-------------------------------------------------------|
-------------------------------------------------------|
-6-66-66---------------------6-66-66-8-88-88-----------|
-6-66-66--8-88-88--4-44-44-6-6-66-66-8-88-88-4-44-44/6-|
-4-44-44--8-88-88--4-44-44-6-4-44-44-6-66-66-4-44-44/6-|
----------6-66-66--2-22-22-4-----------------4-22-22/4-|

(outro)
e-------------------------------------------------------|
B-------------------------------------------------------|
G--6-66-66----------------------------------------------|
D--6-66-66----8-88-88---4-44-44--6~---------------------|
A--4-44-44----8-88-88---4-44-44--6~---------------------|
E-------------6-66-66---2-22-22--4~---------------------|

e-------------------------------------------------------|
B-------------------------------------------------------|
G-6-66-66----8-88-88------------------------------------|
D-6-66-66----8-88-88----8-88-88----6~-------------------|
A-4-44-44----6-66-66----6-66-66----6~-------------------|
E-----------------------6-66-66----4~-------------------|
Tap to rate this tab
# A B C D E F G H I J K L M N O P Q R S T U V W X Y Z