Song name
# A B C D E F G H I J K L M N O P Q R S T U V W X Y Z

Highlands Worship - He Is All We Need tab

Highlands Worship - He Is All We Need
Key of G# (No Capo)
Key of F  (Capo 3)


Intro:
F Am G

(x2 or x4)(Clean or light OD)
E|-------------------------------6------------------------------|
B|---4--4--4--4--4--4--4--4--4------4--3--3--3--3--3------------|
G|--3--3--3--3--3--3--3--3--3--3---3--3--3--3--3--3-------------|
D|--------------------------------------------------------------|
A|--------------------------------------------------------------|
E|--------------------------------------------------------------|


Verse 1:
F Am C
F Am C G
F Am C
Dm G
Dm G

No lead guitar in verse 1.


Chorus 1:
F C Am Dm
F C Am G
F C Am Dm
F

(x3)(Clean or light OD)
E|--11----------------13-----------------|
B|--11--------8-------15-----------------|
G|----(x16)---8---------(x8)-------------|
D|-------------(x8)----------------------|
A|---------------------------------------|
E|---------------------------------------|

(x1, on 4th line)(Clean or light OD)
E|----------------12~-------------13~--11~------|
B|-----11-----11--------------11----------------|
G|--8------8---------------8--------------------|
D|----------------------------------------------|
A|----------------------------------------------|
E|----------------------------------------------|


Interlude:
F Am G

(x2)(Clean or light OD)
E|------------------------------6------------------------------|
B|---4--4--4--4--4--4--4--4--4-----4--3--3--3--3--3------------|
G|--3--3--3--3--3--3--3--3--3--3--3--3--3--3--3--3-------------|
D|-------------------------------------------------------------|
A|-------------------------------------------------------------|
E|-------------------------------------------------------------|


Verse 2:
F Am C
F Am C G
F Am C
Dm G
Dm G

These 2 lines played 3 times, consecutively. (Clean or light OD)
E|-----------------------------------------------------|
B|--9-----9-----9-----9-----8-----8-----8-----8--------|
G|-----8-----8-----8-----8-----8-----8-----8-----8-----|
D|-----------------------------------------------------|
A|-----------------------------------------------------|
E|-----------------------------------------------------|

E|-----------------------------------------------------|
B|--4-----4-----4-----4-----3-----3-----3-----3--------|
G|-----3-----3-----3-----3-----3-----3-----3-----3-----|
D|-----------------------------------------------------|
A|-----------------------------------------------------|
E|-----------------------------------------------------|

For the last 2 lines of verse 2, just play with chords. (Dm and G if capo 3, Fm and A# if no capo)


Chorus 2:
F C Am Dm
F C Am G
F C Am Dm
F
Dm C Am Dm
F C Am G
F C Am Dm
F

These 3 lines played 2 times, consecutively. (Med./Heavy OD)
E|--------------------------------------------------------|
B|--9-----------8--------------4-------------6------------|
G|--8-----------8--------------3-------------5------------|
D|-----(x4)--------(x4)-----------(x4)----------(x4)------|
A|--------------------------------------------------------|
E|--------------------------------------------------------|

E|--------------------------------------------------------|
B|--9-----------8--------------4-------------6------------|
G|--8-----------8--------------3-------------3------------|
D|-----(x4)--------(x4)-----------(x4)----------(x4)------|
A|--------------------------------------------------------|
E|--------------------------------------------------------|

E|------------------------------------------------------------------|
B|--9-----------8--------------4-------------6-------------4--------|
G|--8-----------8--------------3-------------5-------------3--------|
D|-----(x4)--------(x4)-----------(x4)----------(x4)----------(x8)--|
A|------------------------------------------------------------------|
E|------------------------------------------------------------------|


Interlude/Bridge:
Dm C G

(Clean or light OD, to Med./Heavy OD)
E|--13----------11-----------10-------------------------------|
B|--11----------11-----------11-------------------------------|
G|------(x8)--------(x8)---------(x16)------------------------|
D|------------------------------------------------------------|
A|------------------------------------------------------------|
E|------------------------------------------------------------|


Chorus 2:
F C Am Dm
F C Am G
F C Am Dm
F
Dm C Am Dm
F C Am G
F C Am Dm
F

These 3 lines played 2 times, consecutively. (Med./Heavy OD)
E|--------------------------------------------------------|
B|--9-----------8--------------4-------------6------------|
G|--8-----------8--------------3-------------5------------|
D|-----(x4)--------(x4)-----------(x4)----------(x4)------|
A|--------------------------------------------------------|
E|--------------------------------------------------------|

E|--------------------------------------------------------|
B|--9-----------8--------------4-------------6------------|
G|--8-----------8--------------3-------------3------------|
D|-----(x4)--------(x4)-----------(x4)----------(x4)------|
A|--------------------------------------------------------|
E|--------------------------------------------------------|

E|------------------------------------------------------------------|
B|--9-----------8--------------4-------------6-------------4--------|
G|--8-----------8--------------3-------------5-------------3--------|
D|-----(x4)--------(x4)-----------(x4)----------(x4)----------(x8)--|
A|------------------------------------------------------------------|
E|------------------------------------------------------------------|


Outro:
F Am G

Play until end. End on C.(Clean or light OD)
E|-------------------------------6------------------------------|
B|---4--4--4--4--4--4--4--4--4------4--3--3--3--3--3------------|
G|--3--3--3--3--3--3--3--3--3--3---3--3--3--3--3--3-------------|
D|--------------------------------------------------------------|
A|--------------------------------------------------------------|
E|--------------------------------------------------------------|
Tap to rate this tab
# A B C D E F G H I J K L M N O P Q R S T U V W X Y Z