Song name
# A B C D E F G H I J K L M N O P Q R S T U V W X Y Z

Highspeed Minibus - Living In Chinatown drum

Darren
                                                         
C||--------------------------|--------------------------|
H||--------------------------|--------------------------|
t||--------------------------|--------------------------|
T||--------------------------|--------------------------|
S||--------------------------|--------------------------|
B||--o-----o-----o-----o-----|--o-----o-----o-----o-----|


                                                                        
|---o-------------------------------|----------------------------------|
|--------o--x---o---x---o---x---o---|--x---o---x---o---x---o---x---o---|
|*----------------------------------|----------------------------------|
|*----------------------------------|----------------------------------|
|-----------o---------------o-------|----------o---------------o-------|
|---o---------------o---------------|--o---------------o---o-----------|


                                                                        
----------------------------------|-----------------------------------||
--x---o---x---o---x---o---x---o---|--x---x---x---x---x---x---x---x----||
----------------------------------|----------------------------------*||
----------------------------------|----------------------------------*||
----------o---------------o-------|----------o---------------o--------||
--o---------------o---o-----------|--o---------------o---o------------||


                                                      
--------------------------|--------------------------|
--------------------------|--------------------------|
--------------------------|--------------------------|
--------------------------|--------------------------|
--------0-----------------|--------0-----------0-----|
--o-----------o-----------|--o-----------o-----------|


                                                      
--------------------------|--------------------------|
--------------------------|--------------------------|
--------------------------|--------------------------|
--------------------------|--------------------------|
--------0-----------------|--------0-----------0-----|
--o-----------o-----------|--o-----------o-----------|



                                                      
--------------------------|--------------------------|
--------------------------|--------------------------|
--------------------------|--------------------------|
--------------------------|--------------------------|
--------0-----------------|--------0-----------0-----|
--o-----------o-----------|--o-----------o-----------|



                                                              
--------------------------|----------------------------------|
--------------------------|----------------------------------|
--------------------------|------------------o---o---o---o---|
--------------------------|--o---o---o---o-------------------|
--------0-----------0-----|----------------------------------|
--o-----------o-----------|----------------------------------|


                                                            
--o-------------------------|------------------------x-----|
--------x-----x-------x-----|--x-------x-----x-------------|
----------------------------|------------------------------|
----------------------------|------------------------------|
--------0-------------0-----|----------0-------------0-----|
--o-----------o---o---------|------o---------o---o---------|


                                                               
------------------------------|------------------------x-----||
--x-----x-----x-------x-------|--x-------x-----x-------------||
------------------------------|------------------------------||
------------------------------|------------------------------||
--------0-------------0-------|----------0-------------0-----||
--o-----------o---o-------o---|------o---------o---o---------||


This is without doubt the best song HSMB have made so far.
Go to bass and guitar for the other bits.
	
Tap to rate this tab
# A B C D E F G H I J K L M N O P Q R S T U V W X Y Z