Song name
# A B C D E F G H I J K L M N O P Q R S T U V W X Y Z

Hightide Hotel - Porch Luck tab

-------------------------------------------------------------------------------
                             PORCH LUCK 
-------------------------------------------------------------------------------
OR: the most emotional song ever.

by: Hightide Hotel

Tuning: Standard
                                             When the phrase is over play this chord.
e|------0-------2-------0-------2-------------|--0------|
B|----3---3---3---3---3---3---3---3-----------|--3------|
G|--4-------2-------0-------0-----------------|--0------|
D|--------------------------------------------|--0------|
A|--------------------------------------------|---------|
E|--------------------------------------------|---------|


You can either slide up to the four or play the open string.
e|--------------------------------------|
B|---------------(0)--------------------|
G|-----2-------2-/4------2-------2------|
D|---0---0---0---------0---0---0---0----|
A|-------------------2-------0----------|
E|-3-------3----------------------------|

Here is where it picks up. The chords are muddy by nature so just put on some crunch and plow
through these guys.  And when the snare starts killin it start really pounding the strings
then when
IIIIIIII DOOOOONT IIII DOOOONT STARTS GOING JUST MASH YOUR STRING UNTIL YOU SEE RED AND THERE IS 
BLOOD ON YOUR FRETBOARD AND DONT STOP UNTIL EVERYONE IS CRYING (or just you).

e|--2--2-2-2-2-2---------------0-0-0-0-0-0--0-0-0-0-0-0--2-2-2-0-0-0-2-2-2-2-0-0-0---|
B|--3--3-3-3-3-3--3-3-3-3-3-3--3-3-3-3-3-3--3-3-3-3-3-3--3-3-3-3-3-3-3-3-3-3-3-3-3---|
G|--0--0-0-0-0-0--2-2-2-2-2-2--4-4-4-4-4-4--4-4-4-4-4-4--4-4-4-4-4-4-4-4-4-4-4-4-4---|
D|--4--4-4-4-4-4--0-0-0-0-0-0--0-0-0-0-0-0--2-2-2-2-2-2--0-0-0-0-0-0-0-0-0-0-0-0-0---|
A|----------------0-0-0-0-0-0--2-2-2-2-2-2--0-0-0-0-0-0------------------------------|
E|--3--3-3-3-3-3-----------------------------------------3-3-3-3-3-3-3-3-3-3-3-3-3---|

e|--------------------------------------|
B|----------------------------------0---|
G|------2-----------------2-------2-----|
D|----0---0---0---------0---0---0-------| x a lot
A|--------------------------------------|
E|--3-------3---3--2--0-------2---------|

The song is over.  Now go take a nap and try to forget about her.

Tap to rate this tab
 
# A B C D E F G H I J K L M N O P Q R S T U V W X Y Z