Song name
# A B C D E F G H I J K L M N O P Q R S T U V W X Y Z

Hightower - Whirlwind Of Pain tab

Artist: Hightower
Album: Hightower
Song:Whirlwind of Pain

3/9/08
Ok im pretty sure im the first to put up a Hightower song. Hopefully i will have 
HIGHTOWER!!!

terms
/ =slide

Whirlwind of Pain

- Intro 1
1|--------------------------------------------------------------------------|
2|--------------------------------------------------------------------------|
3|--------------------------------------------------------------------------|
4|--------------------------------------------------------------------------|
5|-------9---10--9---7---5---7---5----9---10--9-10-12-10-9------------------|
6|----00-7-0-8-0-7-0-5-0-3-0-5-0-3-00-7-0-8-0-7-8--10-8--7------------------|

- Intro 2
1|-------------------------------------------------------------------------|
2|-------------------------------------------------------------------------|
3|----4-5-2-4-0-2------4-5-2-4-7-5-4---------------------------------------|
4|--2-------------4--2-----------------------------------------------------|
5|-------------------------------------------------------------------------|
6|-------------------------------------------------------------------------|

Then thers the little solo

Next-
1|----------------------------------------------------------------------------|
2|----------------------------------------------------------------------------|
3|----------------------------------------------------------------------------|
4|----------9--12-12-12/11/9--------5-5/4-5/4-5/4-----------------------------|
5|----------7--10-10-10/9-/7--------3-3/2-3/2-3/2 ----------------------------|
6|--0-0-0-0-----------------0-0-0-0--0-----------3----------------------------|

then the verse. boring.

later-
1|-------------------------------------------------------------------------|
2|-------------------------------------------------------------------------|
3|-------------------------------------------------------------------------|
4|-------------------------------------------------------------------------|
5|-------------------------7-8-7--------------------7------------2---------|
6|-0-0-0-0-0-0-0-0-0-7-8-10-----7-0-0-0-0-0-0-0-0-0--7-6-5-4-3-2-0---------|

1|-------------------------------------------------------------------------|
2|-------------------------------------------------------------------------|
3|-------------------------------------------------------------------------|
4|-------------------------------------------------------------------------|
5|-2-7-9-----5-6-7----------5-6-0-----------5-6-7----------5-6-7-----------|
6|-0-5-7----------000-000-00-----000-000-00------000-000-00-----000-000-00-|


The last part is easy but long and confusing and i dont wana tab it


LINKS: Myspace: http://www.myspace.com/hightower
             Website: http://www.hightowereverything.com
Tap to rate this tab
# A B C D E F G H I J K L M N O P Q R S T U V W X Y Z