Song name
# A B C D E F G H I J K L M N O P Q R S T U V W X Y Z

Highway Jackson - Highway Man tab

Help us improve GuitareTab! Take a short survey!
e|----------------------------------------------|         www.highwayjackson.net
B|----------------------------------------------|
G|----------------------------------------------|
D|----------------------------------------------|  X2
A|--------------------5-3-------------------5-3-|
E|---x-x-3-5-x-x-x-x-x----x-x-3-5-x-x-x-x-x-----|

 |----------------------------------------------       |--------|
 |----------------------------------------------       |--------|
 |----------------------------------------------       |--------|
 |---------------------7-5------------------7-5-  X2   |--------|
 |-------5-7-----------5-3-----5-7----------5-3-       |----5-4-|
 |---x-x-3-5-x-x-x-x-x-----x-x-3-5-x-x-x-x-x----       |----3-2-|

 |----------------------------------------------       |--------|
 |----------------------------------------------       |--------|
 |----------------------------------------------       |--------|
 |---------------------7-5------------------7-5-  X2   |--------|
 |-------5-7-----------5-3-----5-7----------5-3-       |----5-4-|
 |---x-x-3-5-x-x-x-x-x-----x-x-3-5-x-x-x-x-x----       |----3-2-|
Related for Highway Man tab