Song name
# A B C D E F G H I J K L M N O P Q R S T U V W X Y Z

Highwaymen - Silver Stallion tab

-------------------------------------------------------------------------------
                          Silver Stallion - The Highwaymen
-------------------------------------------------------------------------------
Tabbed by: Mar19504

Tuning: Standard 



Verse 1:(Kris Kristofferson)
E         C#m            A         E           C#m              A
I'm gonna steal a silver stallion, with not a mark upon his silky hide
E             C#m                A       E              C#m           A
Teach him he can trust me like a brother,one day we'll saddle up and ride

e|-9-h12-9------------------------------------------------------------------|
B|----------12-9------------------------------------------------------------|
G|---------------p11-9------------------------------------------------------|
D|---------------------p11-9-h11--------------------------------------------|
A|--------------------------------------------------------------------------|
E|--------------------------------------------------------------------------|

Chorus:
                  G#m             C#m
And we're gonna ride,we're gonna ride
A
Ride like the one eyed jack of diamonds with the devil close behind
             C#m
We're gonna ride

e|-------------------------------------------------------------------------|
B|-9-9-12h-9---------9-12-9------------------------------------------------|
G|------------9-h11----------11-9------------------------------------------|
D|--------------------------------11---------------------------------------|
A|-------------------------------------------------------------------------|
E|-------------------------------------------------------------------------|


e|-------------------------------------------------------------------------|
B|-9-9-12h-9---------9-12-9-----------9-9-h12-9----------------------------|
G|------------9-11h----------11-9-11------------9-h11----------------------|
D|-------------------------------------------------------------------------|
A|-------------------------------------------------------------------------|
E|-------------------------------------------------------------------------|


Verse 2:(Waylon Jennings)

E            C#m             A     E               C#m          A
I'm gonna find me a reckless woman,razor blades and dice in her eyes

E              C#m             A       E           C#m               A
Just a touch of sadness in her fingers,thunder and lightening in her thighs


e|-9-h12-9------------------------------------------------------------------|
B|----------12-9------------------------------------------------------------|
G|---------------p11-9------------------------------------------------------|
D|---------------------p11-9-h11--------------------------------------------|
A|--------------------------------------------------------------------------|
E|--------------------------------------------------------------------------|


Chorus:
                  G#m             C#m
And we're gonna ride,we're gonna ride
A
Ride like the one eyed jack of diamonds with the devil close behind
             C#m
We're gonna ride

e|-------------------------------------------------------------------------|
B|-9-9-12h-9---------9-12-9------------------------------------------------|
G|------------9-h11----------11-9------------------------------------------|
D|--------------------------------11---------------------------------------|
A|-------------------------------------------------------------------------|
E|-------------------------------------------------------------------------|

e|-------------------------------------------------------------------------|
B|-9-9-12h-9---------9-12-9-----------9-9-h12-9----------------------------|
G|------------9-11h----------11-9-11------------9-h11----------------------|
D|-------------------------------------------------------------------------|
A|-------------------------------------------------------------------------|
E|-------------------------------------------------------------------------|


Verse 3:(Willie Nelson)
E         C#m           A       E                C#m                    A
I'm gonna chase the sky forever,with the woman and the stallion and the wind

E            C#m             A     E               C#m          A
The sun is gonna burn into a cinder,before we ever pass this way again


e|-9-h12-9------------------------------------------------------------------|
B|----------12-9------------------------------------------------------------|
G|---------------p11-9------------------------------------------------------|
D|---------------------p11-9-h11--------------------------------------------|
A|--------------------------------------------------------------------------|
E|--------------------------------------------------------------------------|


Chorus:
                  G#m             C#m
And we're gonna ride,we're gonna ride
A
Ride like the one eyed jack of diamonds with the devil close behind
             C#m
We're gonna ride

e|-------------------------------------------------------------------------|
B|-9-9-12h-9---------9-12-9------------------------------------------------|
G|------------9-h11----------11-9------------------------------------------|
D|--------------------------------11---------------------------------------|
A|-------------------------------------------------------------------------|
E|-------------------------------------------------------------------------|


e|-------------------------------------------------------------------------|
B|-9-9-12h-9---------9-12-9-----------9-12-b12-----------------------------|
G|------------9-11h----------11-9-11---------------------------------------|
D|-------------------------------------------------------------------------|
A|-------------------------------------------------------------------------|
E|-------------------------------------------------------------------------|


************************************

| /   slide up
| \   slide down
| h   hammer-on
| p   pull-off
| ~   vibrato
| +   harmonic
| x   Mute note
| b   Bend
| pb  Pre-bend
| br  Bend release
| pbr Pre-bend release
| brb Bend release bend

************************************
Tap to rate this tab
# A B C D E F G H I J K L M N O P Q R S T U V W X Y Z