Song name
# A B C D E F G H I J K L M N O P Q R S T U V W X Y Z

Hikaru Utada - Sakura Drops tab

Just bored and fooling with my acoustic again, and figured this out =). This is just the 
part of 'Sakura Drops' by Utada Hikaru. My 2nd Tab.
This is just the background part you hear throughout the whole song, again.
If there are any mistakes, or any questions, contact me.
By: RyukOkami
Standard Tuning
Capo-3rd Fret.
*=let it ring/shimmer
Use regular fingering on strings if possible. Numbers are relative to the capo, so 5th 
due to capo, would really be 2nd.

E|--3-2-0-----0--3-2-0-----0--3-2-0-----0*-----0------0---------------------|
B|-------3-0-3--------3-0-3--------3-0-3--3-0-3--3-0-3----------------------|
G|--------------------------------------------------------------------------|
D|--------------------------------------------------------------------------|
A|--------------------------------------------------------------------------|
E|--------------------------------------------------------------------------|

When this melody goes off, as in when Utada sings gently, with barely any music, then if 
still want to pick, go ahead and use this pattern of string movements. It matches her 
pattern.

E|--------------------------------------------------------------------------|
B|--0----0------------------------------------------------------------------|
G|---0----2--222------------------------------------------------------------|
D|----2---------------------------------------------------------------------|
A|--------------------------------------------------------------------------|
E|--------------------------------------------------------------------------|

Hope this helps you all! Any questions, contact me, RyukOkami. Any mistakes, say so, and I'll
fix it. Hope this is enough. Good day!
Tap to rate this tab
# A B C D E F G H I J K L M N O P Q R S T U V W X Y Z