Song name
# A B C D E F G H I J K L M N O P Q R S T U V W X Y Z

Hikaru Utada - Be My Last chords

Highlighted       Show chord diagrams
These are just the chords; seeing as how I don't know Japanese,
I was unable to put the lyrics and when to play the chords,
like most other guitar chord diagrams on here. I took from
the only other Be My Last tab on here. I just kinda named
the chords.

Verse:
Esus4 E (x4)

Pre-chorus:
Cadd9 F#sus4 F#m G (x2)

Interlude:
Em D C D

Chorus:
C D Em D (x3)

Verse:
Esus4 E (x4)

Pre-chorus:
Cadd9 F#sus4 F#m G (x2)

Interlude:
Em D C D

Chorus:
C D Em D (x3)

Bridge:
Em D C D
Em D
Cadd9 F#sus4 F#m G A7sus? G

Chorus:
C D Em D (till end)



CHORDS:

 Esus4   E 
|--0-----0--| 
|--0-----0--|
|--2-----1--| 
|--2-----2--|
|--2-----2--|
|--0-----0--|

Cadd9      F#sus4      F#m     G
|--3----------2---------2------3--|
|--3----------2---------2------3--| 
|--0----------4---------2------0--|
|--2----------4---------4------0--|
|--3----------2---------4------2--|
|--X----------2---------2------3--|

   Em     D     C
|--X------X-----0--|
|--X------X-----1--|
|--4------2-----0--|
|--5------4-----2--|
|--7------5-----3--|
|--7------5-----3--|

A7sus?
|--X--|
|--3--|
|--0--|
|--1--|
|--0--|
|--0--|
Tap to rate this tab
# A B C D E F G H I J K L M N O P Q R S T U V W X Y Z