Song name
# A B C D E F G H I J K L M N O P Q R S T U V W X Y Z

Hikaru Utada - Beautiful World tab

Standard Tuning.
Tab by Ciaran Plummer.

1st Guitar repeats these chords for intro, and chorus.
(Capo on 5th fret).

|-0---1---0---0---|
|-1---1---1---0---|
|-2---2---0---0---|
|-2---3---2---x---|
|-0---x---x---2---|
|-x---x---x---3---|

2nd guitar repeats this at the same time. (No capo)

|-5-----5-6-----6-5-----5-0-----0-|
|---6-------6-------6-------6-----|
|-----5-------5-------5-------5---|
|---------------------------------| 
|---------------------------------|
|---------------------------------|


1st and 2nd verse. (No capo)

|---------------------------------|
|---------------------------------|
|-7/9-9-9-9-9-9-9-5/9-9-9-9-9-9-9-|
|-5/7-7-7-7-7-7-7-7/7-7-7-7-7-7-7-| 
|---------------------------------|
|---------------------------------|

|---------------------------------|
|---------------------------------|
|-7-7-7-7-7-7-7-7-9-9-9-9-9-9-9-9-|
|-5-5-5-5-5-5-5-5-7-7-7-7-7-7-7-7-| 
|---------------------------------|
|---------------------------------|

|---------------------------------|
|---------------------------------|
|-7/9-9-9-9-9-9-9-5/9-9-9-9-9-9-9-|
|-5/7-7-7-7-7-7-7-7/7-7-7-7-7-7-7-| 
|---------------------------------|
|---------------------------------|

|-------------------------------------------------|
|-------------------------------------------------|
|-11-11-11-11-11-11-11-11-14-14-14-14-14-14-14-14-|
|-9--9--9--9--9--9--9--9--12-12-12-12-12-12-12-12-| 
|-------------------------------------------------|
|-------------------------------------------------|

Pre-Chorus

|-0~--------------------------------|
|-0~--------------------------------|
|-0~----------------10-----12-------|
|-2~----------------10-----12-------| 
|-2~----------------8------10-------|
|-0~---0-3-5-7~---------------------|

|-0~------------------------0~------|
|-0~------------------------0~------|
|-0~----------------10------0~------|
|-2~----------------10------2~------| 
|-2~----------------8-------2~------|
|-0~---0-3-5-7~-----------0-0~------|

Build Up (continuos strumming)

|-------------------|
|-------------------|
|-7-7-7-7-7-7-7-7-7-|
|-x-x-x-x-x-x-x-x-x-| 
|-5-5-5-5-5-5-5-5-5-|
|-------------------|

Outro (Repeat)

|-----------------------------------------|
|-----------------------------------------|
|-----------------------------------------|
|--7---7---7---7--7-----7---7---7---7--7--| 
|-5---5---5---5--5-5---5---5---5---5--5-5-|
|-----------------------------------------|
Tap to rate this tab
 
# A B C D E F G H I J K L M N O P Q R S T U V W X Y Z